20130911

GUSTAVO CANABARRO EL TORO TAB (SPANISH GUITAR SOLO TAB)

Gustavo Canabarro plays El Toro (Malaguena) live in a TV show
Brilliant flamenco guitar playing in standard tuning
Download the TAB under the video



GUSTAVO CANABARRO EL TORO TAB


Intro

e-0---1-3-1-0h1p0----------0-----0--------------------------------------
B-------------------------0-------0-------------------------------------
G------------------------1---------1------------------------------------
D-----------------------2-----------2-----------------------------------
A----------------------2-------------2----------------------------------
E---------------------0---------------0---------------------------------


e---------------------------0-------------------------------------------
B-0---3---1-0h1p0---------1----------------0-1---0-3-1-0----------------
G-----------------------2----------2---1-2---2-----------2--------------
D---------------------3----------------------3--------------------------
A-------------------0------------------------0--------------------------
E-----------------------------------------------------------------------



e----------------0------------------------------------------------------
B-------------0--0------------------------------------------------------
G----------1------------------------------------------------------------
D-------2---------------------------------------------------------------
A----2------------------------------------------------------------------
E-0---------------------------------------------------------------------


e-0---1-3-1-0h1p0----------0--------------------------------------------
B-------------------------0-0-------------------------------------------
G------------------------1---1------------------------------------------
D-----------------------2-----2-----------------------------------------
A----------------------2-------2----------------------------------------
E---------------------0---------0---------------------------------------


e------------------------1----------------------------------------------
B-0---3---1-0h1p0-------1-1--------------------0-1---0---3-----1---3-/-4
G----------------------2---2-----------2---1-2---2----------------------
D---------------------3-----3--------------------3----------------------
A--------------------3-------3-------------------3----------------------
E-------------------1---------1------------------1----------------------


e-----------------------------------------------------------------------
B----4~-----------------------------------------------------------------
G-----------------------------------------------------------------------
D-----------------------------------------------------------------------
A-----------------------------------------------------------------------
E-----------------------------------------------------------------------



Part 1

e-----------------------------------------------------------------------
B----0-----0-----0-----0-----0-----0-----1-----1-----1-----1-----0-----0
G----1-----1-----1-----1-----1-----1-----2-----2-----2-----2-----2-----2
D-----------------------------------------------------------------------
A-------------2-----------------2-----0-----3-----2-----0---------------
E-0-----4-----------0-----4-----------------------------------3-----1---


e-----------------------------------------------------------------------
B----0-----0-----0-----0-----0-----0-----0-----0-----0-----0-----0-----0
G----1-----1-----1-----1-----1-----1-----2-----2-----2-----2-----2-----2
D-----------------------------------------------------------------------
A-------------2-----------------2-----0-----3-----2-----0---------------
E-0-----4-----------0-----4-----------------------------------3-----1---


e-----------------------------------------------------------------------
B----0-----0-----0-----0-----0-----0-----0-----0-----0-----0-----0-----0
G----1-----1-----1-----1-----1-----1-----2-----2-----2-----2-----2-----2
D-----------------------------------------------------------------------
A-------------2-----------------2-----0-----3-----2-----0---------------
E-0-----4-----------0-----4-----------------------------------3-----1---


e-----------------------------------------------------------------------
B-----0-------0-------0-------0-------0-------0-------1-------1-------1-
G-----1-------1-------1-------1-------1-------1-------2-------2-------2-
D-----------------------------------------------------------------------
A-----------------2-----------------------2-------0-------3-------2-----
E-0-------4---------------0-------4-------------------------------------


e-----------------------------------0-----------------------------------
B-----1-------1-------0------------0-0----------------------------------
G-----2-------2-------2-----------1---1---------------------------------
D--------------------------------2-----2--------------------------------
A-0-----------------------------2-------2-------------------------------
E---------3-------1----------0--------------0---------------------------

 

Part 2

e-0-0-0--0-0-0--0-0-0--0-0-0--0-0-0--0-0-0------------------------------
B-----------------------------------------------------------------------
G-----------------------------------------------------------------------
D-----------------------------------------------------------------------
A-----------------------------------------------------------------------
E-----------------------------------------------------------------------


e-0-0-0--1-3-1-0---------0-----------0----------------------------------
B--------------0---3-1-0-1---------0-1---0-3-1-0------------------------
G--------------1---------2---2-1h2---2-----------2----------------------
D--------------2---------3-----------3----------------------------------
A--------------2---------0-----------0----------------------------------
E--------------0--------------------------------------------------------