20130924

MORNING SUN TAB (RELAXING ACOUSTIC GUITAR TAB)


There is an awesome video on YouTube shared by wavesdvd.com
7 songs played with an acoustic guitar while sitting by the sea and enjoy the waves
The 1st one is Morning Sun (by Somber Guitar) played in Open G tuning (DGDGBd)
Download the TAB under the video




SHORT GUITAR LESSON OF THE 1ST TRACK - MORNING SUN


MORNING SUN ACOUSTIC GUITAR TAB

GP5 + GP6 + PDF >>

Part 1

d---7-------7-------7-------7-------------------------------------------
B-------0-------0-------0-------0---------------------------------------
G-----7-------7-------7-------7-----------------------------------------
D-0-------0-------0-------0---------------------------------------------
G-----------------------------------------------------------------------
D-----------------------------------------------------------------------


d---7-------7-------5-------5-------4-------4-------5-------5-----------
B-------0-------0-------0-------0-------0-------0-------0-------0-------
G-----7-------7-------4-------4-------2-------2-------4-------4---------
D-0-------0-------0-------0-------0-------0-------0-------0-------------
G-----------------------------------------------------------------------
D-----------------------------------------------------------------------



d-------0-------0-------0---0-----------0-------0-----------------------
B---5-------------------------------1-----------------0h1---1-----------
G-----------0-------0-----------0-----------0---------0-----------------
D-----0-------0-------4-------4-------2-------2-------0h2-----2---------
G-5-------5-------4-------4-------2-------2-------0-------0-------------
D-----------------------------------------------------------------------



d-----------------------------------------------------------------------
B-0---0-----0-----------------------------------------------------------
G-----0---------0-------------------------------------------------------
D-----0-------0---------------------------------------------------------
G-0---0---0-------------------------------------------------------------
D-----------------------------------------------------------------------


d---7-------7-------5-------5-------4-------4-------5-------5-----------
B-------0-------0-------0-------0-------0-------0-------0-------0-------
G-----7-------7-------4-------4-------2-------2-------4-------4---------
D-0-------0-------0-------0-------0-------0-------0-------0-------------
G-----------------------------------------------------------------------
D-----------------------------------------------------------------------






DOWNLOAD THIS TAB IN GUITAR PRO



  • click 'Free Download'
  • add your e-mail address
  • you will get an e-mail with your download links (in a few seconds)
  • download the Guitar Pro 6 tab + GP5 + PDF for free
  • and that's all ...






SEE ALSO 

SHIMMER TAB (3RD SONG IN THIS MIX) 

STARRY NIGHT TAB (6TH SONG IN THIS MIX) 

WARNING LIGHT TAB (LAST SONG IN THIS MIX)