20130902

TOMMY EMMANUEL PHIL EMMANUEL SHADOWS MEDLEY GUITAR TAB


Tommy and Phil Emmanuel play a bunch of Shadows songs live on stage
Tommy plays the rhythm with the acoustic guitar, Phil plays the solos
Download the TAB under the video



TOMMY AND PHIL EMMANUEL SHADOWS MEDLEY TAB


Apache

e------------------------3/5-3--------------------------------3/5-3-----
B---1-3-(5)(3)---------1-------5---------1-3-(5)(3)---------1-------5---
G-2------------------2-----------------2------------------2-------------
D-----------------------------------------------------------------------
A-----------------------------------------------------------------------
E-----------------------------------------------------------------------


e--------------------------------------------------------------0~-------
B-------------------------------------------------------------1~--------
G---2~-----------2--------------------2~---------------------2~---------
D-2----------2-------4~-------2---0-------------------------2~----------
A------------------------------------------0-0----------0---------------
E----------------------------------------------0-0-3'-------------------


e-----------------------------------------------------------------------
B-----------------------------------------------------------------------
G---2~-----------2--------------------2~--------------------------------
D-2----------2-------4~-------2---0-------------------------------------
A------------------------------------------0-0----------0~--------------
E----------------------------------------------0-0-3'-------------------


e-----------------------------------------------------------------------
B------3~-----------3---0~----------------3~-------3~-------------------
G-2~------------2----------------2~---0----------2----------------------
D-----------------------------------------------------------------------
A-----------------------------------------------------------------------
E-----------------------------------------------------------------------


e-------------------------------------0~----------------------0---------
B-------------------------------------1~------------------------1-------
G---2~-----------2--------------------2~--------------------------2-----
D-2----------2-------4~-------2---0---2~----------------------------2~--
A------------------------------------------0-0----------0---------------
E----------------------------------------------0-0-3'-------------------


e-----------------------------------------------------------------------
B-----------------------------------------------------------------------
G-----------------------------------------------------------------------
D-----3-3-3---3-3-----3-3-3---3-3-----3-3-3---3-3-----3-3-3---3---2-----
A-3---------------3---------------3---------------3-------------------0-
E-----------------------------------------------------------------------


e-----------------------------------------------------------------------
B-----------------------------------------------------------------------
G-----------------------------------------------------------------------
D-----------------------------------------------------------------------
A-----------------------------------------------------------------------
E-////////-\\\\\\\\\\\\\------------------------------------------------


e-----------------------------------------------------------------------
B-----------------------------------------------------------------------
G-----------------------------------------------------------------------
D-----3-3-3---3-3-----3-3-3---3-3-----3-3-3---3-3-----3-3-3---3---2-----
A-3---------------3---------------3---------------3-------------------0-
E-----------------------------------------------------------------------


e--------------------------------------------12-10h12p10-8-5---\--------
B---------1---0~-------1---3-/-5-3---1----------------------------------
G-----2--------------------------------2--------------------------------
D-3---------------------------------------------------------------------
A-----------------------------------------------------------------------
E-----------------------------------------------------------------------


e-1-----------------------------------------12--------------------------
B-1-----------1---0~-------1---3----------------15--13------------------
G-2-------2------------------------0~------------------15-12------------
D-3---3-------------------------------------------------------14-12-----
A-3------------------------------------------------------------------15\
E-----------------------------------------------------------------------


e------------------------------------------0~---------------------------
B-------------1---0~-------1---3-/-5-3---1-1~-----------0h1~------------
G---------2--------------------------------2~---------2-----------------
D-----3------------------------------------2~-------2-------------------
A------------------------------------------0~-----0---------------------
E-1---------------------------------------------------------------------


e-----------------------------------------------------------------------
B-----------------------------------------------------------------------
G-----------------------------------------------------------------------
D-----3-3-3---3-3-----3-3-3---3-3-----3-3-3---3-3-----3-3-3---3-3-2-----
A-3---------------3---------------3---------------3-------------------0-
E-----------------------------------------------------------------------


e-----0~----------------------------------------------------------------
B-----1~----------------------------------------------------------------
G-----2~----------------------------------------------------------------
D-2---------------------------------------------------------------------
A-----------------------------------------------------------------------
E-----------------------------------------------------------------------


e-----------------------------------------------------------------0~----
B-----------------------------------------------------------------1~----
G-----------------------------------------------------------------2~----
D-----3-3-3---3-3-----3-3-3---3-3-----3-3-3---3-3-----3-3-3-------2~----
A-3---------------3---------------3---------------3-----------0---------
E-----------------------------------------------------------------------


Dance on by 1:34

e------------------------------0---0.-----------------------------------
B------------------------------0---0.-----------------------------------
G------------------------------1---1.------------------2~-----2~-----2.-
D-----2---0--------------------2---2.------------------2~-----2~-----2.-
A------------------------------2---2.-------------0.---0~-----0~-----0.-
E-0-----------0.---0.---0-0.---0---0.---0-0-0-2-4-----------------------


e------------------------------0----------------------------------------
B------------------------------0----------------------------------------
G------------------------------1-----------------------2------2~-----2.-
D-----2---0--------------------2---2~------------------2------2~-----2.-
A------------------------------2------------------0----0------0~--------
E-0-----------0.---0.---0-0.---0--------0-0-0-2-4-----------------------