20131015

SKINNY LOVE FINGERSTYLE TAB


Bon Iver - Skinny Love acoustic fingerstyle guitar cover played by Gilbert Kat
It's in standard tuning with Capo on the 4th fret
Download the TAB under the video



SKINNY LOVE FINGERSTYLE TAB

PDF + GUITAR PRO >> 

Intro                    - CAPO on the 4th -

e-----------------------------------------------------------------------
B-1---------------1---------------1---------------1-------0-------------
G-2---------------2---------------0-------------------0-----------------
D-----------------3---------------------------2---------------0---------
A-0-------------------------------3-----------------------2-------------
E-----------------------------------------------------------------------


e-----------------------------------------------------------------------
B-1---------------1-----------1---1-------1-------1-------0-------------
G-2---------------2-------0h2-----0-------0-----------0-----------------
D-----------------3-------3-----------2-------2---------------0---------
A-0-------------------------------3-----------------------2-------------
E-----------------------------------------------------------------------


Part 1

e-0---3-3---3p0---5---3-3---0-----0-------------------------------------
B-1---------------1---1-------0---1-------------1-----------------------
G-2-------------0-2---2---------0-0-----0-0---0-----0---------0---------
D---------2---------------------------2---0h2---------2-----0---0-------
A-0-------------------------------3-------3-------------3-2-------------
E-----------------1-----------------------------------------------------



e-0---3-3---3p0.--5---3-3---------0-------------------------------------
B-1---------------1---1-----1-----1---3-1-------1-----------------------
G-2---------------2---2-------2---0-------0---------0-----0-2-----------
D---------2---------------------0---------0h2---------2-------0---------
A-0-------------------------------3-------3-----------------------------
E-----------------1-----------------------------------------------------


e-------------------------0-----------------------------------0---------
B-1-------------1-----1-----------1-------------1-----------3-----------
G-2-------0-2.--2-----0h2---2---0-------0-0---------0-------------------
D-----2---------3-----3-------3-------2---0h2-2-------2-----------------
A-0-------------------------------3-------3-----------------------------
E-----------------------------------------------------------------------


e-1-------0-------------------------------------0-----------------------
B-3---------------3-------1---------------0h1--------------1p0----------
G-2---2-----------2---------0-----2-----2-----2----------------2p0------
D-0-----------0-------0-------0---2---2---------------------------------
A---------------------------------0-------------------------------------
E-----------------------------------------------------------------------

 etc ...