20131023

ERIC CLAPTON I'M TORE DOWN TAB (HYDE PARK - 1996)


Eric Clapton performs I'm Tore Down live in Hyde Park - 1996
Right after this song they play Have You Ever Loved A Woman
Download the TAB of his guitar playing below



ERIC CLAPTON I'M TORE DOWN TAB


Intro

e------10'--------------------------------------------------------------
B-8.--------------------------------------------------------------------
G-----------------------------------------------------------------------
D-----------------------------------------------------------------------
A-----------------------------------------------------------------------
E-----------------------------------------------------------------------


e-(11)(10)p8-10p8----8~-------------------------------------------------
B-----------------10--------11'---8-------------------------------------
G-----------------------------------10'---10-8h10p8----8'---------------
D---------------------------------------------------10------10----------
A--------------------------------------------------------------10~---10~
E-----------------------------------------------------------------------


Verse 1

e-----------------11(13)-----11'-----8----------------------------------
B-----10.------------------------------8--------------------------------
G-----9.---------------------------------10-8'--------------------------
D-----10.----------------------------------------10~--------------------
A-----------------------------------------------------------------------
E-----------------------------------------------------------------------



e-----8.----------11(13)-----11'-----8----------------------------------
B-----8.-------------------------------8--------------------------------
G-----8.---------------------------------10-8'--------------------------
D----(7)-----------------------------------------10~--------------------
A----(8)----------------------------------------------------------------
E-----------------------------------------------------------------------


e----------8--------8---------------------------------------------------
B--------8---11(13)---8-------------------------------------------------
G-10(12)----------------10(12)(10)p8----8'------------------------------
D------------------------------------10------10-------------------------
A-----------------------------------------------10~---10~---------------
E-----------------------------------------------------------------------


Chorus

e-----------------------------------------------------------------------
B-8.----------------10-----8.--------------------------8.---------------
G-8h9.--------------10-----8h9.------------------------9.---------------
D-8.----------------10-----8.-------------------------10.---------------
A-----------------------------------------------------------------------
E-----------------------------------------------------------------------


e-----------------------------8------------8----------------------------
B-10.-----------------------8---11(13)-------8--------------------------
G-8.-----------------10(12)--------------------10-8'--------------------
D-10.--------------------------------------------------10---------------
A---------------------------------------------------------10~-----------
E-----------------------------------------------------------------------


e----------8----------8-------------------------------------------------
B--------8---11(13)-----------------------------------------------------
G-10(12)----------------10(12)(10)p8----8'------------------------------
D------------------------------------10------10-------------------------
A-----------------------------------------------10~---10~---------------
E-----------------------------------------------------------------------


e-----------------------------------------------------------------------
B--8.----------------8.----------------8.---------------8.--------------
G--9.----------------9.----------------9.---------------9.--------------
D-10.---------------10.---------------10.--------------10.--------------
A-----------------------------------------------------------------------
E-----------------------------------------------------------------------