20131011

EROS RAMAZOTTI UN EMOZIONE PER SEMPRE SOLO TAB


Eros Ramazotti - Un Emozione Per Sempre acoustic guitar solo cover by Deaktee
This solo is around 2:58 in the original song
Download the TAB under the video



UN EMOZIONE PER SEMPRE SOLO TAB

PDF >>

e-----------------------------------------------------------------------
B-4-5-7---5---4---------------------------------------------------------
G-----------------6---4---3---3h4~---------------3h4-3------------------
D--------------------------------------------------------4/6~-----------
A-----------------------------------------------------------------------
E-----------------------------------------------------------------------


e-----------------------------------------------------------------------
B---------------------4h5---4-------------------------------------------
G-3---3---3---4---6-----------------------------------------------------
D-------------------------------4---4h6~------------4h6-4~--------------
A-----------------------------------------------------------------------
E-----------------------------------------------------------------------


e-----------------------------------------------------------------------
B-----------------------------7-7-/-9-7~--------------------------------
G-6---6/8-6-4-4h6-4-----6/8---------------------------------------------
D-----------------------------------------------------------------------
A-----------------------------------------------------------------------
E-----------------------------------------------------------------------