20131029

EVERY BREATH YOU TAKE FINGERSTYLE GUITAR TAB


The Police - Every Breath You Take fingerstyle guitar cover played by Hansel Pethig
It's in standard tuning with CAPO on the 2nd fret
Download the TAB under the video



EVERY BREATH YOU TAKE FINGERSTYLE TAB

PDF + GUITAR PRO >> 

CAPO on 2nd fret

Part 1

e-----------------------------------------------------------------------
B-----------------0-------------------------------0---------------------
G---------2-----------2-------2-----------2-----------2-------0---------
D-----0-------0-----------0-----------0-------0-----------0-------------
A-----------------------------------------------------------------------
E-3-------------------------------3-------------------------------------


e-----------------------------------------------------------------------
B-----------------------------------------------------------------------
G-----------------0-------------------------------0---------------------
D---------4-----------4-------4-----------4-----------4-------0---------
A-----2-------2-----------2-----------2-------2-----------2-------------
E-0-------------------------------0-------------------------------------


e-----------------------------------------0-----------------------------
B---------3-------1-------------------------------3---------------------
G-------------0-------0-------0-------2-------2-------2-------0---------
D-----2-------------------2-------0-----------------------0-------------
A-3---------------------------------------------------------------------
E-----------------------------------------------------------------------



e-----------------------------------------------------------------------
B-----------------------------------------------------------------------
G-----------------0-----------------------------------------------------
D---------4-----------4-------4-----------------------------------------
A-----2-------2-----------2---------------------------------------------
E-0---------------------------------------------------------------------



Part 2

e-----------------------------------------------------------------------
B-----------------------------------------0---1---0-----------0---------
G-----------------------------------------------------2-p-0-------------
D-----------------------------------------------------------------------
A-------------------------------------2---------------------------------
E---------------------------------0-------------------------------------


e-----------------------------------------------------------------------
B-----------------0-----------------------0---1---0---------------------
G---------2-----------2-------2-----------------------2-p-0---0---------
D-----0-------0-----------0-----------0---------------------------------
A-----------------------------------------------------------------------
E-3-------------------------------3-------------------------------------


e-----------------------------------------------------------------------
B---------------------------------------------0-------1-----------------
G-----------------0-----------------------0-------------------0---------
D---------4-----------4-------4---------------------------0-------------
A-----2-------2-----------2-----------2---------------------------------
E-0-------------------------------0---------------0---------------------


e-----------------------------------------------------------------------
B-------------1-------0---------------------------0---------------------
G---------0-------------------2-----------2-----------2-------0---------
D-----2-------------------0-----------4-------4-----------4-------------
A-3---------------3---------------5-------------------------------------
E-----------------------------------------------------------------------


e-----------------------------------------------------------------------
B-----------------------------------------------------------------------
G-----------------0-----------------------------------------------------
D---------4-----------4-------4-----------------------------------------
A-----2-------2-----------2---------------------------------------------
E-0---------------------------------------------------------------------


e-----------------------------------------------------------------------
B-----------------------------------------0---1---0-----------0---------
G-----------------------------------------------------2-p-0-------------
D-----------------------------------------------------------------------
A-------------------------------------2---------------------------------
E---------------------------------0-------------------------------------


e-----------------------------------------------------------------------
B-----------------0-----------------------0---1---0---------------------
G---------2-----------2-------2-----------------------2-p-0---0---------
D-----0-------0-----------0-----------0---------------------------------
A-----------------------------------------------------------------------
E-3-------------------------------3-------------------------------------


e-----------------------------------------------------------------------
B---------------------------------------------0-------1-----------------
G-----------------0-----------------------0-------------------0---------
D---------4-----------4-------4---------------------------0-------------
A-----2-------2-----------2-----------2---------------------------------
E-0-------------------------------0---------------0---------------------


e-----------------------------------------------------------------------
B-------------1-------0---------------------------0---------------------
G---------0-------------------2-----------2-----------2-------0---------
D-----2-------------------0-----------4-------4-----------4-------------
A-3---------------3---------------5-------------------------------------
E-----------------------------------------------------------------------


e-----------------------------------------------------------------------
B-----------------0-----------------------------------------------------
G---------2-----------2-------2-----------------------------------------
D-----0-------0-----------0---------------------------------------------
A-----------------------------------------------------------------------
E-3---------------------------------------------------------------------

 etc ...