20131002

ZEDD CLARITY TAB (ACOUSTIC FINGERPICKING GUITAR TABS)


Zedd - Clarity ft. Foxes acoustic guitar cover played by Jason Purugganan
It's arranged in standard tuning with CAPO on the 1st fret
Download the TAB under the video



ZEDD CLARITY ACOUSTIC TAB


Intro (CAPO on 1st)

e---3p2-------3p2-------3p2-------3p2-------3p2-------3p2---------------
B-3-----3---3-----3---3-----3---3-----3---3-----3---3-----3-------------
G---------0---------0---------0---------0---------0---------0-----------
D-----------------------------------------------------------------------
A-----------------------------------------------------------------------
E-----------------------------------------------------------------------


e---3p2-----------3-----------------------------------------------------
B-3-----3-------3-------3-----------------------------------------------
G---------0---0-------0-------------------------------------------------
D-------------------------0---------------------------------------------
A-----------2-------3---------------------------------------------------
E-----------------------------------------------------------------------


Part 1

e---------------------0-------------------------------------------------
B-----3---3---0h1-3-------3---0h1-3---1---0-------------1---------------
G-----0-------------0---0---0-------0---0-----2-2-----------4-----------
D---2---2---2-----0-----------------------------------0---------0-------
A-3---------------------------------------2-----3-----------------------
E---------------------------------0-------------------------------------



e---------------------0-------------------------------------------------
B-----3---3---0h1-3-------3---0h1-3---1---0-----------------------------
G-----0-------------0---0---0-------0---0-----2-2p0---------------------
D---2---2---2-----0-----------------------------------------------------
A-0---------------------------------------2-----3-----------------------
E---------------------------------0-------------------------------------


e---------------------0-------------------------------------------------
B-----3---3---0h1-3-------3---0h1-3---1---0-------------1---------------
G-----0-------------0---0---0-------0---0-----2-2-----------4-----------
D---2---2---2-----0-----------------------------------0---------0-------
A-3---------------------------------------2-----3-----------------------
E---------------------------------0-------------------------------------


e---------------------0-------------------------------------------------
B-----3---3---0h1-3-------3---0h1-3---1---0-----------------------------
G-----0-------------0---0---0-------0---0-----2-2p0---------------------
D---2---2---2-----0-----------------------------------------------------
A-0---------------------------------------2-----3-----------------------
E---------------------------------0-------------------------------------


Part 2

e------3---3--------3---5---5-----------3---3-------0---3---7-8-7-------
B-----3----3---3.-3-3-----------3-------0---0---0-3---3-----------8-----
G----0---0---0--------2---2---2---0---0---0---0-------------------------
D-------------------0---------------------------------------------------
A---2-----------------------------------------------3-------------------
E-0---------------------------------3-----------------------8-----------


e-----3---3--------3---5---5-----------3---3-------0---3---7-8-7--------
B-----3-------3.-3-3-----------3-------0---0---0-3---3-----------8------
G---0---0---0--------2---2---2---0---0---0---0--------------------------
D------------------0----------------------------------------------------
A--------------------------------------------------3---3----------------
E-0--------------------------------3-----------------------8------------


Part 3

e-----3-/-10-----7--------5-----3---3-5-5---5---3---5---7---2-2-3-------
B-----3-/-8------8---8.---8-----3---3-3-3---3---3-------0---3-3-3-3p0---
G---0----------7---7----------0-----------0---0---0---0---0-------------
D---------0---------------0---------------------------------------------
A---------------------------------------------------3-------3---3-0-----
E-0-------------------------------0-3-----------------------------------