20131106

LAI YOUTTITHAM FÜR ELISE TAB (ELECTRIC GUITAR TABS)


Beethoven - Für Elise guitar cover played by Lai Youttitham
Amazing electric guitar cover with backing track
Download the TAB under the video



BEETHOVEN FÜR ELISE ELECTRIC GUITAR TAB


Part 1

e-12-11-12-11-12-7-10-8-7------------5-7---------7-8--------------------
B-------------------------10-------5-----------9------------------------
G--------------------------------5-----------9-----------9--------------
D------------------------------7-----------6-----------7----------------
A----------------------------7-----------7-----------7------------------
E-----------------------------------------------------------------------
                             x x x x     x x x       x x x


e-12-11-12-11-12-7-10-8-7-----------5-7-------8-7-----------------------
B---------------------------------5---------------10--------------------
G-------------------------------5-----------9------------9--------------
D-------------------------7---7-----------6------------7----------------
A---------------------------7-----------7------------7------------------
E-----------------------------------------------------------------------
                          x x x x x     x x x        x x x


e-12-11-12-11-12-7-10-8-7----------------5-7(8)(7)~------4-7/8~---------
B-------------------------8/10~---------5-------------/5----------------
G--------------------------------------5--------------------------------
D-----------------------------------------------------------------------
A-----------------------------------------------------------------------
E-----------------------------------------------------------------------
                                       xxx



e----12-11-12-11-12-7-10-8-7------------5-7-------8-7-------------------
B----------------------------10-------5---------------10----------------
G-/9--------------------------------5-----------9-----------------------
D---------------------------------7-----------6------------7------------
A-------------------------------7-----------7------------7--------------
E-----------------------------------------------------------------------
                                x x x x     x x x        x x


e-7-8-10/12----------13-12-10---------12-10-8-------10-8-7-------12-12--
B-----------------------------------------------------------------------
G-----------------12---------------10-------------9----------9-9--------
D--------------10----------------9--------------7-----------------------
A-----------10----------------10--------------7------------7------------
E-----------------------------------------------------------------------
            x  x  x           x  x x          x x x        x


Part 2

  T
e-24p11h12p11h12p11h12p11h12p11h12p11h12p11-12\7-10-8-------------17-19~
B-----------------------------------------------------10-----13/17------
G----------------------------------------------------------14-----------
D--------------------------------------------------------14-------------
A-----------------------------------------------------------------------
E-----------------------------------------------------------------------
                                                           x

e-----16-19/20-------------------------------------5-7-------8-7--------
B-/17--------------------------------------------5---------------10~----
G----------------------------------------------5-----------9------------
D--------------------------------------------7-----------6--------------
A-----------------------7-6-7-6-7----------7-----------7----------------
E----------------17-\\\-----------7-10-8-5------------------------------
                        x x x x   x x  x   x x x x     x x


e-/7-8-10/12~------12(13)(12)-10~------10/12\10-8~------8(10)(8)-7------
B-----------------------------------------------------------------------
G--------------------------------------------------------------------9-9
D-----------------------------------------------------------------------
A------------------------------------------------------------------7----
E-----------------------------------------------------------------------
                                                                   x

        T
e-12-12-24p11h12p11-12p11h12p11-12p11h12p11h12p11-12\-7-10-8------------
B------------------------------------------------------------10---------
G-----------------------------------------------------------------------
D-----------------------------------------------------------------------
A-----------------------------------------------------------------------
E-----------------------------------------------------------------------


e----------5-7----------7-8---------------------------------------------
B--------5------------9-------------------------------------------------
G------5------------9-----------9---------------------------------------
D----7------------6-----------7-----------------------------------------
A-/7-----------/7-----------7-------------------------------------------
E-----------------------------------------------------------------------
     x x x                  x x x


e-12-11-12-11-12-7-10-8--------------12-17-(19)~~~------19(20)(19)-17~-\
B-----------------------10--------13------------------------------------
G------------------------------14---------------------------------------
D--------------------------/14------------------------------------------
A-----------------------------------------------------------------------
E-----------------------------------------------------------------------
                               x

Part 3

e-8-8-8-8------/13---12-12---10-----18---17-17--15--13--12--------------
B-----------------------------------------------------------15--13------
G-------------------------------------------------------------------15--
D-8-7-5-----------------------------------------------------------------
A-------8---------------------------------------------------------------
E-----------------------------------------------------------------------