20131126

CLARIS CONNECT ACOUSTIC FINGERSTYLE GUITAR TAB


ClariS - Connect acoustic fingerstyle guitar cover played by Osamurai San
(Mahou Shoujo Madoka Magika)
Download the TAB under the video



CLARIS CONNECT FINGERSTYLE TAB


Attention Osamurai San plays the song in half-step down tuning with CAPO on the 2nd
You can also play it with standard tuning BUT with CAPO on the 1st
It will sound exactly the same.
A '-0-' means the open string in the TAB wherever you put the CAPO.

Part 1

e-----------------------------------------------------------------------
B-1p0-1-3---------------------------------------------------------------
G-----------------------------------------------------------------------
D-----------------------------------------------------------------------
A-----------------------------------------------------------------------
E-----------------------------------------------------------------------


e-0---------0-----------3-----------------------------------------------
B-------1h3-----1-3h5---------3---3-----0h1h3---3-3p1p0h1---0h1h3-------
G---0h2-------2-------4-----0---------0-----------2-------0-------------
D-3---------------5---------------2-------------------------------------
A-----------------------------------------------------------------------
E-----------------------------------------------------------------------


e-0---------0-----------3-----------------------0-----------------------
B-------1h3-----1-3h5---------3---3-----3---2h3-2-----------------------
G---0h2-------2-------4-----0---------0---------------------------------
D-3---------------5-----------------2-----------------------------------
A---------------------------------0-------------------------------------
E-----------------------------------------------------------------------



Part 2

e-0---0---0-0-0-3---3-3-3-5-5-5-5-3---3---0-0-0-0---0-0-0-0-0-0-0-------
B-1---1---1-1-1-3---3-3-3-3-3-3-3-0---0---0-0-0-1---1-1-1-1-1-1-1-------
G-2---2---2-2-2-0---0-0-0-0-0-0-0-0---0---0-0-0-2---2-2-2-2-2-2-2-------
D-3---3---3-3-3-0---0-0-0-0-0-0-0-0---0---0-0-0-2---2-2-2-2-2-2-2-------
A-x---x---x-x-x-x---x-x-x-x-x-x-x-2---2---2-2-2-0---0-0-0-0-0-0-0-------
E-1---1---1-1-1-3---3-3-3-3-3-3-3-0---0---0-0-0-------------------------

 
e-0---0-0-0-0-0-0---0-0-0-5-5-5-5-3---3-3---3-3-3-0---0-0---0-0-0-------
B-1---1-1-1-1-1-3---3-3-3-3-3-3-3-0---0-0---0-0-0-3---3-2---2-2-2-------
G-2---2-2-2-2-2-0---0-0-0-0-0-0-0-0---0-0---0-0-0-0---0-0---0-0-0-------
D-2---2-2-2-2-2-3---3-3-3-3-3-3-3-0---0-0---0-0-0-2---2-2---2-2-2-------
A-x---x-x-x-x-x-x---x-x-x-x-x-x-x-2---2-2---2-2-2-0---0-0---0-0-0-------
E-2---2-2-2-2-2-1---1-1-1-1-1-1-1-3---3-3---3-3-3-----------------------



Part 3

e-0---0-----------------------------------------------------------------
B-1---1---1-0---1-----0---1---3.--0---0---0-----------------------------
G-2---2---2-0---2-----0---2---2.--0---0-----2---0-----------0---2-------
D-3---3-----------------------------------------------------------------
A-x---x-----------------------------------------------------------------
E-1---1---1-1-1-1-1-1-1-1-1-1-1-1-3-3-3-3-3-3-3-3-3-3-3-3-3-3-3-3-------


e---------------1---0-0-------------------------------------------------
B-0---------0-----------3---0---3-1-------3-------1-------0-------------
G-----0-2---------------------------------------------------------------
D-----------------------------------------------------------------------
A---------------------------------0-0-0-0-0-0-0-0-----------------------
E-0-0-0-0-0-0-0-0-0-0-0-0-0-0-0-0-----------------3-3-3-3-3-3-3---------


e-0---0-----------------------------------------------------3.--0-------
B-1---1---1-0---1-----0---1---3.--0---0---0-----------------0.--0-------
G-2---2---2-0---2-----0---2---2.--0---0---0-2---0-----------------------
D-3---3---3-3---3-----3---3---3.--0---0---------------------------------
A-x---x-----------------------------------------------------------------
E-1---1-1-1-1-1-1-1-1-1-1-1-1-1-1-3-3-3-3-3-3-3-3-3-3-3-3-3-3-3-3-------


e-----------------------------3.--0-------------------------------------
B-3---1---3-1---3-------3-----0.--1-----3-----1---------------1h3-------
G-------------------4-5---0-----------------------0-----------0---------
D-------------------------------------------------------2---------------
A---------------------------------0-0-0-0-0-0-0-0-0-0-0-0-0-0-0-0-------
E-0-0-0-0-0-0-0-0-4-4-4-4-4-4-4-0---------------------------------------



Part 4

e-0-------------------------------------0-----0---------------0h1-------
B-1-----------3p1---------1---3---------1-----1---------1-----0---------
G-2-----2-----2---------2---------2-----------2---------2---------------
D-3---3-----3---------3-----------3-----------3-------3-----3-----------
A-x-----------------------------------0---------------------------------
E-1---------------1---------------1---------------1---------------------


e-3-----1-----0-------------------------0---------------0---------------
B-0-----0-----0-----3-----0---3---1---------1-----------1-----1h3-------
G-0-----0-----0-----0-----0---0---0-----------0-0-------------0---------
D-----------------------0-------------2---------------2-----2-----------
A-----2---------------------------0---------------0---------------------
E-0---------------0-----------------------------------------------------