20131110

GUITAR BOOGIE TAB (ACOUSTIC GUITAR SOLO TAB)


Epic Guitar Boogie played by Davie504 with his acoustic guitar and bass
There is a cool bluesy solo around 1:30
Download the TAB under the video



GUITAR BOOGIE TAB

GP5 + GP6 + PDF >>

Part 1

e-----------------------------------------------------------------------
B-----------------------------------------------------------------------
G-----------------------------------------------------------------------
D-----------------------------------------------------------------------
A---2---2-2---2-2---2-2---2-2---2-2---2-2---2-2-------------------------
E---0-------------------------------------------------------------------


e-----------------------------------------------------------------------
B-----------------------------------------------------------------------
G-----------------------------------------------------------------------
D-----------------------------------------------------------------------
A---2---2-2---2-2---2-2---2-2---2-2---2-2/--x---------------------------
E---0-----------------------------------------9-\\\---------------------


e-----------------------------------------------------------------------
B-----------------------------------------------------------------------
G-----------------------------------------------------------------------
D---------------------------2---2---------------------------------------
A---------------2---2-4---x-------4---4-2---x-----2---------------------
E---0---0-3---4-------------------------------3h4-----------------------



e-----------------------------------------------------------------------
B-----------------------------------------------------------------------
G-----------------------------------------------------------------------
D-----------------------------------------------------------------------
A---------------2---2-4---2-4/5---5-4---4-2---x-----2-------------------
E---0---0-3---4---------------------------------3h4---------------------


e-----------------------------------------------------------------------
B-----------------------------------------------------------------------
G---------------------------2---2---------------------------------------
D---------------2---2-4---x-------4---4-2---x---------------------------
A---0---0-3---4-----------------------------------2---------------------
E---------------------------------------------3h4-----------------------


e-----------------------------------------------------------------------
B-----------------------------------------------------------------------
G-----------------------------------------------------------------------
D---------------------------2---2---------------------------------------
A---------------2---2-4---x-------4---4-2---x-----2---------------------
E---0---0-3---4-------------------------------3h4-----------------------


e-----------------------------------------------------------------------
B-----------------------------------------------------------------------
G-----------------------------------------------------------------------
D-----------------------------------------------------------------------
A---2---2-4---x-5---5-4---x-2---2-------------2-----2-------------------
E---------------------------------5.----3/4-----3h4---------------------


e-----------------------------------------------------------------------
B-----------------------------------------------------------------------
G-----------------------------------------------------------------------
D---------------------------2---2---------------------------------------
A---------------2---2-4---x-------4---x-2---2-----2---------------------
E---0---0-3---4-------------------------------3h4-----------------------


e-----------------------------------------------------------------------
B-----------------------------------------------------------------------
G-----------------------------------------------------------------------
D-----------------------------------------------------------------------
A---------------2---2-4---2-4/5---5-4---4-2---x-----2-------------------
E---0---0-3---4---------------------------------3h4---------------------


e-----------------------------------------------------------------------
B-----------------------------------------------------------------------
G---------------------------2---2---------------------------------------
D---------------2---2-4---x-------4---4-2---x---------------------------
A---0---0-3---4-----------------------------------2---------------------
E---------------------------------------------3h4-----------------------


e-----------------------------------------------------------------------
B-----------------------------------------------------------------------
G-----------------------------------------------------------------------
D---------------------------2---2---------------------------------------
A---------------2---2-4---x-------4---4-2---x-----2---------------------
E---0---0-3---4-------------------------------3h4-----------------------


e-----------------------------------------------------------------------
B-----------------------------------------------------------------------
G-----------------------------------------------------------------------
D-----------------------------------------------------------------------
A---2---2-4---x-5---5-4---x-2---2-------------2-----2-------------------
E---------------------------------5.----3/4-----3h4---------------------


e-----------------------------------------------------------------------
B-----------------------------------------------------------------------
G---------------------------3-3.--2-------------------------------------
D-----2---------2-----x---x-2-2.--1-------------------------------------
A-----2---------2-----x---x-3-3.--2-------------------------------------
E---0-0---------0-----x---x---------------------------------------------


Part 2

e-----------------------------------------------------------------------
B-----------------------------------------------------------------------
G---6/7---x-------------------7---x-------------------------------------
D---5/6---x-------------------6---x-------------------------------------
A---6/7---x-------------4-----7---x-------------------------------------
E-----------4-----7-----------------4-----7-----4-----------------------


e-----------------------------------------------------------------------
B-----------------------------------------------------------------------
G---6/7---x-------------------7---x-------------------------------------
D---5/6---x-------------------6---x-------------------------------------
A---6/7---x-------------4-----7---x-------------------------------------
E-----------4-----7-----------------4-----7-----6-----------------------






DOWNLOAD THIS TAB IN GUITAR PRO



  • click 'Free Download'
  • add your e-mail address
  • you will get an e-mail with your download links (in a few seconds)
  • download the Guitar Pro 6 tab + GP5 + PDF for free
  • and that's all ...


Guitar Pro: a complete workshop for guitarists at an affordable price