20131129

LOVE THEME FROM THE GODFATHER TAB (ELECTRIC GUITAR TABS)


Love Theme from the Godfather guitar cover played by Lai Youttitham
Amazing electric guitar cover with backing track
Download the TAB under the video



LOVE THEME FROM THE GODFATHER ELECTRIC GUITAR TAB


Part 1

e------10-/-13---12---10---13-p-10-/-12---10----------------------------
B-10-------------------------------------------11-/-13---10~------------
G-----------------------------------------------------------------------
D-----------------------------------------------------------------------
A--- USE THE TREMOLO BAR -----------------------------------------------
E-----------------------------------------------------------------------


e------10-/-13---12---10---13-p-10-/-12---10----------------------------
B-10-------------------------------------------10---9-------------------
G-------------------------------------------------------12~-------------
D-----------------------------------------------------------------------
A-----------------------------------------------------------------------
E-----------------------------------------------------------------------


e-----------9-/-12~---------------------------9---10~-------------------
B------11--------------------------------11-----------------------------
G-12--------------------------------12----------------------------------
D-----------------------------------------------------------------------
A-----------------------------------------------------------------------
E-----------------------------------------------------------------------



e-----------------------------------------------------------------------
B--------------13---11---10---13---11---11---10---10--------------------
G---------10------------------------------------------------------------
D-10/12------------------------------------------------11---11/12~------
A-----------------------------------------------------------------------
E-----------------------------------------------------------------------


e-------10-13/17p13-----------------------------------------------------
B-----10-----------15---------------------------------------------------
G---10---------------14~------------------------------------------------
D-12--------------------------------------------------------------------
A-----------------------------------------------------------------------
E-----------------------------------------------------------------------


Part 2

e----------------------------------12~------10--------------------------
B-15---15---14---13~------13~--------------------11---10~~~-------------
G-----------------------------------------------------------------------
D-----------------------------------------------------------------------
A-----------------------------------------------------------------------
E-----------------------------------------------------------------------


e-----------------------------------------------------------------------
B-10---13-p-10--------------------------------11---9---10---------------
G----------------12~~~-------------------12-----------------------------
D-----------------------------------------------------------------------
A-----------------------------------------------------------------------
E-----------------------------------------------------------------------

          T
e----9h12-17p12p9-------------------------------------------------------
B--10------------10-----------------------------------------------------
G-9----------------9----------------------------------------------------
D-------------------11--------------------------------------------------
A---------------------12------------------------------------------------
E-----------------------------------------------------------------------


Part 3

e------10-/-13---12---10---13-p-10-/-12---10----------------------------
B-10-------------------------------------------11-/-13---10~------------
G-----------------------------------------------------------------------
D-----------------------------------------------------------------------
A--- USE THE TREMOLO BAR -----------------------------------------------
E-----------------------------------------------------------------------


e------10-/-13---12---10---13-p-10-/-12---10----------------------------
B-10-------------------------------------------10---9-------------------
G-------------------------------------------------------12~-------------
D-----------------------------------------------------------------------
A-----------------------------------------------------------------------
E-----------------------------------------------------------------------


Part 4 (acoustic part)

e-------10-13-12h13p12---10-------13-10-12---10h12p10-------------------
B-/10-----------------------------------------------------11-13-10h11p10
G-----------------------------------------------------------------------
D-----------------------------------------------------------------------
A-----------------------------------------------------------------------
E-----------------------------------------------------------------------