BILLY IDOL RUN RUDOLPH RUN TAB


Run Rudolph Run from Billy Idol's Christmas album (Happy Holidays)
The guitar solos sound like Chuck Berry ...
Download the TAB under the video



BILLY IDOL RUN RUDOLPH RUN TAB

PDF + GUITAR PRO >>

Intro

e------7-7-7-7-7--------------------------------------------------------
B------7-7-7-7-7-9-7-----7-7-7-7-7-7------------------------------------
G-/8-------------9-7h8---7-7-7-7-7-8------------------------------------
D----------------------9-------------9----------------------------------
A-----------------------------------------------------------------------
E-----------------------------------------------------------------------


e---------7-7---------7---------7-------7-10-10'------------------------
B---------7-7-7-------7-7-------7-------7-9--9'-------------------------
G-9(11)-------9(11)-----9(11)-----9(11)---------------------------------
D-----------------------------------------------------------------------
A-----------------------------------------------------------------------
E-----------------------------------------------------------------------


e-----------------------------------------------------------------------
B-----------------------------------------------------------------------
G-----------------------------------------------------------------------
D-----------------------------------------------------------------------
A-9-9-11-9-9-9-11-9--9-9-11-9-9-9-11-9----------------------------------
E-7-7-7--7-7-7-7--7--7-7-7--7-7-7-7--7----------------------------------
  x x x  x x x x  x  x x x  x x x x  x


e-----------------------------------------------------------------------
B-----------------------------------------------------------------------
G-----------------------------------------------------------------------
D-11-11-13-11-11-11-13-11--11-11-13-11-11-11-13-11----------------------
A-9--9--9--9--9--9--9--9---9--9--9--9--9--9--9--9-----------------------
E-----------------------------------------------------------------------
  x  x  x  x  x  x  x  x   x  x  x  x  x  x  x  x

e-----------------------------------------------------------------------
B-----------------------------------------------------------------------
G-----------------------------------------------------------------------
D-----------------------------------------------------------------------
A-9-9-11-9-9-9-11-9--9-9-11-9-9-9-11-9----------------------------------
E-7-7-7--7-7-7-7--7--7-7-7--7-7-7-7--7----------------------------------
  x x x  x x x x  x  x x x  x x x x  x

 etc ...