20131209

SLASH & MYLES KENNEDY CIVIL WAR TAB (LIVE, ACOUSTIC, MAX SESSIONS)

Legendary acoustic live version of Civil War with Slash and Myles Kennedy
Slash plays awesome guitar solos in half-step down tuning
Download the TAB under the video



SLASH & MYLES KENNEDY CIVIL WAR ACOUSTIC TAB


Intro

D#----------------------------------------------------------------------
A#----------------------------------------------------------------------
F#-----------------0-------------------------------0--------------------
C#---------2-----------2-------2-----------2-----------2-------0--------
G#-----2-------2-----------2-----------2-------2-----------0h2----------
D#-0-------------------------------0------------------------------------


D#----------------------------------------------------------------------
A#----------------------------------------------------------------------
F#-----------------0-------------------------------0--------------------
C#---------0-----------0-------0-----------0-----------0-------0--------
G#-----2-------2-----------2-----------2-------2-----------0h2----------
D#-3-------------------------------3------------------------------------


D#----------------------------------------------------------------------
A#----------------------------------------------------------------------
F#-----------------0-------------------------------0--------------------
C#---------2-----------2-------2-----------2-----------2-------0--------
G#-----2-------2-----------2-----------2-------2-----------0h2----------
D#-0-------------------------------0------------------------------------



D#----------------------------------------------------------------------
A#----------------------------------------------------------------------
F#-----------------0-------------------------------2---0-------0--------
C#---------0-----------0-------0-----------0---------------0h2----------
G#-----2-------2-----------2-----------0-------0------------------------
D#-3-------------------------------2------------------------------------


D#----------------------------------------------------------------------
A#----------------------------------------------------------------------
F#-----------------0-------------------------------0--------------------
C#---------2-----------2-------2-----------2-----------2-------0--------
G#-----2-------2-----------2-----------2-------2-----------0h2----------
D#-0-------------------------------0------------------------------------


D#----------------------------------------------------------------------
A#----------------------------------------------------------------------
F#-----------------0-------------------------------0--------------------
C#---------0-----------0-------0-----------0-----------0-------0--------
G#-----2-------2-----------2-----------2-------2-----------0h2----------
D#-3-------------------------------3------------------------------------


D#----------------------------------------------------------------------
A#----------------------------------------------------------------------
F#-----------------0-------------------------------0--------------------
C#---------2-----------2-------2-----------2-----------2-------0--------
G#-----2-------2-----------2-----------2-------2-----------0h2----------
D#-0-------------------------------0------------------------------------


D#----------------------------------------------------------------------
A#----------------------------------------------------------------------
F#-----------------0-------------------------------2---0-------0--------
C#---------0-----------0-------0-----------0---------------0h2----------
G#-----2-------2-----------2-----------0-------0------------------------
D#-3-------------------------------2------------------------------------


Verse 1

D#----------------------------------------------------------------------
A#----------------------------------------------------------------------
F#-----------------0-------------------------------0--------------------
C#---------2-----------2-------2-----------2-----------2-------0--------
G#-----2-------2-----------2-----------2-------2-----------0h2----------
D#-0-------------------------------0------------------------------------


D#----------------------------------------------------------------------
A#----------------------------------------------------------------------
F#-----------------0-------------------------------0--------------------
C#---------0-----------0-------0-----------0-----------0-------0--------
G#-----2-------2-----------2-----------2-------2-----------0h2----------
D#-3-------------------------------3------------------------------------


D#----------------------------------------------------------------------
A#----------------------------------------------------------------------
F#-----------------0-------------------------------0--------------------
C#---------2-----------2-------2-----------2-----------2-------0--------
G#-----2-------2-----------2-----------2-------2-----------0h2----------
D#-0-------------------------------0------------------------------------


D#----------------------------------------------------------------------
A#----------------------------------------------------------------------
F#-----------------0-------------------------------2---0-------0--------
C#---------0-----------0-------0-----------0---------------0h2----------
G#-----2-------2-----------2-----------0-------0------------------------
D#-3-------------------------------2------------------------------------


D#-----------------0----------------------------------------------------
A#---------------------0-------0-------------------0--------------------
F#-------------------------0---------------------------0----------------
C#---------2-------------------------------2---------------2---0--------
G#-----2-------2-----------------------2-------2------------------------
D#-0-------------------------------0------------------------------------


D#----------------------------------------------------------------------
A#---------------------------------1---0-------0-------0----------------
F#-----------------0-------0---0-----------0h2-----0-----------0--------
C#---------0-----------0-----------------------------------0h2----------
G#-----2-------2--------------------------------------------------------
D#-3--------------------------------------------------------------------


D#----------------------------------------------------------------------
A#----------------------------------------------------------------------
F#-----------------0-------------------------------0--------------------
C#---------2-----------2-------2-----------2-----------2-------0--------
G#-----2-------2-----------2-----------2-------2-----------0h2----------
D#-0-------------------------------0------------------------------------


D#----------------------------------------------------------------------
A#----------------------------------------------------------------------
F#-----------------0-------------------------------2---0-------0--------
C#---------0-----------0-------0-----------0---------------0h2----------
G#-----2-------2-----------2-----------0-------0------------------------
D#-3-------------------------------2------------------------------------


Verse 2

D#----------------------------------------------------------------------
A#----------------------------------------------------------------------
F#-----------------0-------------------------------0--------------------
C#---------2-----------2-------2-----------2-----------2-------0--------
G#-----2-------2-----------2-----------2-------2-----------0h2----------
D#-0-------------------------------0------------------------------------


D#-------------------------------------0-------0------------------------
A#---------------------------------5-------3----------------------------
F#-----------------0-------------------------------4\2p0---2---0--------
C#---------0-----------0-------0----------------------------------------
G#-----2-------2-----------2--------------------------------------------
D#-3--------------------------------------------------------------------