20140126

ERIC CLAPTON LAYLA TAB (INSTRUMENTAL GUITAR TABS)


Eric Clapton - Layla instrumental guitar cover played by Ritchie Black SE
Great electric guitar instrumental with backing track
Download the TAB under the video



ERIC CLAPTON LAYLA INSTRUMENTAL TAB                     


Part 1

e-----------------------------------------------------------------------
B-----------------------------------------------------------------------
G-------------2---2-----------------------------------2-----------------
D-----0-3p0---0---0---5.--3-------------5-------------0-----------------
A-0-3-------3---------3.--1-------0-----3-------0-----------------------
E-----------------------------------3.------------3.--------------------


e-----------------------------------------------------------------------
B-----------------------------------------------------------------------
G-------------2---2-----------------------------------2-----------------
D-----0-3p0---0---0---5.--3-------------5-------------0-----------------
A-0-3-------3---------3.--1-------0-----3-------0-----------------------
E-----------------------------------3.------------3.--------------------


Part 2

e-------10-13p10----10~------------13(15)-----13-----12-------------10--
B-10h13----------13-----------------------------------------13~---------
G-----------------------------------------------------------------------
D-----------------------------------------------------------------------
A-----------------------------------------------------------------------
E-----------------------------------------------------------------------



e-------10-13p10----10~------------15(17)-----15-----12-----------------
B-10h13----------13-----------------------------------------13~-----15~-
G-----------------------------------------------------------------------
D-----------------------------------------------------------------------
A-----------------------------------------------------------------------
E-----------------------------------------------------------------------


e-------10-13p10----10~------------13(15)-----13-----12~------------10--
B-10h13----------13-----------------------------------------13----------
G-----------------------------------------------------------------------
D-----------------------------------------------------------------------
A-----------------------------------------------------------------------
E-----------------------------------------------------------------------


e-------10-13p10----10~------------15(17)-----15-----12-----------------
B-10h13----------13-----------------------------------------13~---------
G-----------------------------------------------------------------------
D-----------------------------------------------------------------------
A-----------------------------------------------------------------------
E-----------------------------------------------------------------------


Part 3

e----------------------9h12----9----------------------------------------
B-x---x-x-12(14)------------12---9--------------------------------------
G----------------------------------11(13)(11)p9-11(13)~~~---------------
D-----------------------------------------------------------------------
A-----------------------------------------------------------------------
E-----------------------------------------------------------------------


e-----------------------------------------------------------------------
B----------9-12---------------------------------------------------------
G-11(13)--------9~~--------9--------------------------------------------
D----------------------------11-9---------------------------------------
A---------------------------------11\9p7-9/10\9p7-------7~--------------
E---------------------------------------------------9-------------------


e-----------------------------------------------------------------------
B---------------------------------------------------------9-10-11-12----
G-------------9---11(13)---(11)p9----11~~~----11-9-11(13)---------------
D--------9-11---------------------11------------------------------------
A-9/11------------------------------------------------------------------
E-----------------------------------------------------------------------