20140122

RIHANNA UNFAITHFUL TAB (ELECTRIC GUITAR TABS)


Rihanna - Unfaithful instrumental guitar cover played by Paul Hurley
Awesome electric guitar cover with backing track
Download the TAB under the video



RIHANNA UNFAITHFUL ELECTRIC GUITAR TAB


Part 1

e-----------------------------------------------------------------------
B-4-4-4-4---------4-4-4-4---------4-4-4-4-4\1-1-3~----------------------
G---------5~--------------5~--------------------------------------------
D-----------------------------------------------------------------------
A-----------------------------------------------------------------------
E-----------------------------------------------------------------------


e-----------------------------------------------------------------------
B-4-4-4-4---------4-4-4-4---------4-4-4-4-4\1-1-3~----------------------
G---------5~--------------5~--------------------------------------------
D-----------------------------------------------------------------------
A-----------------------------------------------------------------------
E-----------------------------------------------------------------------


e-----------------------------------------------------------------------
B-1-3-4/6-6/8---8-9-8-6---6~---\4-4-4-4-4-4h6---4\3---------------------
G-----------------------------------------------------------------------
D-----------------------------------------------------------------------
A-----------------------------------------------------------------------
E-----------------------------------------------------------------------



e-----------------------------------------------------------------------
B-4-4-4-4---------4-4-4-4---------4-4-4-4-4\3-3-3~----------------------
G---------5~--------------5~--------------------------------------------
D-----------------------------------------------------------------------
A-----------------------------------------------------------------------
E-----------------------------------------------------------------------


Part 2

e-----------------------------------------------------------------------
B-4-3-------------------------------------------------------------------
G-----5-3-5----/7~----8---7~----8----/10---8-----10----/12---10---------
D-----------------------------------------------------------------------
A-----------------------------------------------------------------------
E-----------------------------------------------------------------------


e-----------------------------------------------------------------------
B-9/11\9p8--------------------------------------------------------------
G----------10p8\5-----7-----8---7~----8--/10-8h10---8-------------------
D-----------------------------------------------------------------------
A-----------------------------------------------------------------------
E-----------------------------------------------------------------------


e-11-10-8---------------------------------------------------------------
B---------11/13~--------------------------------------------------------
G-----------------------------------------------------------------------
D-----------------------------------------------------------------------
A-----------------------------------------------------------------------
E-----------------------------------------------------------------------


Part 3

e-15-15-15-15-15-----15-----16-16~--------------------------------------
B-----------------------------------------------------------------------
G-----------------------------------------------------------------------
D-----------------------------------------------------------------------
A-----------------------------------------------------------------------
E-----------------------------------------------------------------------


e-13-13-13-13-13-----13-------16-15~------------------------------------
B-----------------------------------------------------------------------
G-----------------------------------------------------------------------
D-----------------------------------------------------------------------
A-----------------------------------------------------------------------
E-----------------------------------------------------------------------


e-15-15-15-15-15-----15-----16-16~--------------------------------------
B-----------------------------------------------------------------------
G-----------------------------------------------------------------------
D-----------------------------------------------------------------------
A-----------------------------------------------------------------------
E-----------------------------------------------------------------------