20140128

PINK PANTHER THEME FINGERSTYLE TAB


The Pink Panther Theme fingerstyle guitar cover played by Hemo
It's in standard tuning and no Capo is used
Download the TAB under the video



PINK PANTHER THEME FINGERSTYLE TAB

GP5 + GP6 + PDF >>

e-----------------------------------------------------------------------
B-----------------------------------------------------------------------
G-----------------------------------------------------------------------
D---6/7--/8h9---------9-------------9-----------9-----------------------
A---4/5--/6h7---------7-------------7-----------7-----------------------
E-----------------------7-------------0-----------7.--------------------


e-----------------------------------------------------------------------
B-----------------------------------------------------------------------
G-----------------------------------------------------------------------
D---6/7--/8h9---------9-------------9-----------9-----------------------
A---4/5--/6h7---------7-------------7-----------7-----------------------
E-----------------------7-------------0-----------7.--------------------


e-----------------------------------------------8-7-\---3---7.----------
B---------------------7h8-----------------7h8---------5-----------------
G---------8/9-----------------------8/9---------------------------------
D---6/7.----------------------------------------------------------------
A---4/5.----------------------------------------------------------------
E-----------0-----------7-------------0---------------------------------



e----x-5----------------3-----------------------------------------------
B----x-5------------------5p3-5-----------------------------------------
G-----------------------------------------------------------------------
D-----------------------------------------------------------------------
A----x-3------------------------3---------------------------------------
E-------------------3-----------------------3---x-----------------------


e-----------------------------------------8-7-------------12.-----------
B---------------7h8-----------------7h8--------------12-----------------
G---8/9-----------------------8/9---------------9/12--------------------
D-----------------------------------------------------------------------
A-----------------------------------------------------------------------
E-----0-----------7-------------0---------------------------------------

 etc ...