20140209

FUGA Y MISTERIO TAB (CLASSICAL GUITAR TABS)


Astor Piazzolla - Fuga Y Misterio classical guitar cover by Federico Ochoa
It's arranged in standard tuning and no Capo is needed
Download the TAB under the video



FUGA Y MISTERIO CLASSICAL GUITAR TAB

GP5 + GP6 + PDF >>

Part 1

e--------------------------------------------6---7---8-6-7~-------------
B-----------------------7---8---7---8---10------------------------------
G-----6-8---9---8---9---------------------------------------------------
D---9-----9-------------------------------------------------------------
A-----------------------------------------------------------------------
E-----------0--------------------------------0--------------------------


e---7.--12---10---8------------------------------------------7-7-7~-----
B---------------------12---11---8---7---7~-------------7-8-7------------
G-------------------------------------9-------------10------------------
D-----------------------------------------------------------------------
A-----------------------------------------------------------------------
E-------0-----------------------------------0---------------------------


e---7---10---8-7--------------7-----------------------7-8~--------------
B----------------10---9~------------------10---9---10-------------------
G---------------------------------9---8---------------------------------
D-----------------------------------------------------------------------
A-----------------------------------------0-----------------------------
E-------0---------------------------------------------------------------



e---8------7----7-8---7-------------------------------------------------
B-------10---10---------10-8---7~------10.------------------------------
G-------------------------------------------7---6-----------------------
D-----------------0-------------------------0---------------------------
A-----------------------------------------------------------------------
E-----------------------------------------------------------------------


e----------------7-------7-7-7-7-7-7------------------------------------
B-------7---8-10--------------------------------------------------------
G---0-------------------------------------------------------------------
D-----------------------------------------------------------------------
A-----------------------------------------------------------------------
E----------------7-----------7------------------------------------------


e---7-------------------7-----------------------------------------------
B-------10-8-7--------------10-8-7--------------------------------------
G----------------9~----------------9------------------------------------
D-----------------------------------------------------------------------
A---7------------7----------7-------------------------------------------
E-----------------------------------------------------------------------


e-----------------------------------------------------------------------
B---11---10----------------11---10--------------------------------------
G-----------12-11---9~-------------12-11-9------------------------------
D-----------------------------------------------------------------------
A---9---------------9-----------9---------------------------------------
E-----------------------------------------------------------------------


e-----------------------------------------------------------------------
B---10---8-7-------------10---8-7---------------------------------------
G------------9---8----------------9-8-9~--------------------------------
D-----------------------------------------------------------------------
A---9-------------------------------------------------------------------
E----------------7------------7-------0---------------------------------


Part 2

e----------------------------------------------0---1h3-0--------------0-
B----------------------0---1---0---1---3---4----------------------0-----
G------1---2---1---2------------------------------------------1---------
D--2h4---2--------------------------------------------------------------
A----------0------------------------------------------------------------
E----------------------3---2-----------2---1-----------0----------------




DOWNLOAD THIS TAB IN GUITAR PRO



  • click 'Free Download'
  • add your e-mail address
  • you will get an e-mail with your download links (in a few seconds)
  • download the Guitar Pro 6 tab + GP5 + PDF for free
  • and that's all ...


Guitar Pro: a complete workshop for guitarists at an affordable price