20140209

FUGA Y MISTERIO TAB (CLASSICAL GUITAR TABS)


Astor Piazzola - Fuga Y Misterio classical guitar cover by Federico Ochoa
It's arranged in standard tuning and no Capo is needed
Download the TAB under the video



FUGA Y MISTERIO CLASSICAL GUITAR TAB


Part 1

e------------------------------------------6---7---8-6-7----------------
B---------------------7---8---7---8---10--------------------------------
G---6-8---9---8---9-----------------------------------------------------
D-9-----9---------------------------------------------------------------
A-----------------------------------------------------------------------
E---------0--------------------------------0----------------------------


e-7.--12---10---8-----------------------------------------------7-7-7---
B-------------------12---11---8---7---7-------------------7-8-7---------
G-----------------------------------9------------------10---------------
D-----------------------------------------------------------------------
A-----------------------------------------------------------------------
E-----0-----------------------------------0-----------------------------


e-7---10---8-7--------------7-----------------------7-8-----------------
B--------------10---9-------------------10---9---10---------------------
G-------------------------------9---8-----------------------------------
D-----------------------------------------------------------------------
A---------------------------------------0-------------------------------
E-----0-----------------------------------------------------------------



e-8------7----7-8---7------------------------------------------7--------
B-----10---10---------10-8---7-------10.----------8---7---8-10----------
G-----------------------------------------7---6---0---------------------
D---------------0-------------------------0-----------------------------
A-----------------------------------------------------------------------
E--------------------------------------------------------------7--------


e-7-7-7-7-7-7-7--------------------7------------------------------------
B-----------------10-8-7---------------10-8-7---11---10-----------------
G--------------------------9------------------9---------12-11---9-------
D-----------------------------------------------------------------------
A-------------7------------7--------------------9---------------9-------
E-----7-----------------------------------------------------------------


e-----------------------------------------------------------------------
B-11---10---------10---8-7-------------10---8-7-------------------------
G---------12-11-9----------9---8----------------9-8-9-------------------
D-----------------------------------------------------------------------
A------9----------9-----------------------------------------------------
E------------------------------7------------7-------0-------------------


Part 2

e---------------------------------------------0---1h3-0-----------------
B---------------------0---1---0---1---3---4-----------------------------
G-----1---2---1---2-----------------------------------------------------
D-2h4---2---------------------------------------------------------------
A---------0-------------------------------------------------------------
E---------------------3---2-----------2---1-----------0-----------------


e---------0---5-----------------------------------------------0-0-0-----
B-----0-----------8---6---5---4---1---0---0-------------0-1-------------
G-1-------------------------------------2-------------3-----2-----------
D-----------------------------------------------------------------------
A-------------0-----------0---3---------------2-------------------------
E-------------------------------------------------------------0---------


e-----0---3---1-0-------------0---------------------0-1-----------------
B---------3-------3---2-------------------3---2---3---------------------
G-1---------------3---2---0-------3---2---------------2-----------------
D-----------------------------3-----------3---2---3---------------------
A-----------------------------------------------------------------------
E-----------------------------------------------------------------------


e-1-----0-----1---0----------------------------------------0------------
B-----3---3-3-------3-1---0-------3.-----------1---0---1h3--------------
G-------------------------0------------0-------0------------------------
D-------------0-----------0----------------4----------------------------
A----------------------------------------------3------------------------
E-------------------------3------------3-------------------0------------


e---0-0-0-0-0-0-0-------------------0-----------------------------------
B-4-----------------3-1-0---------------3-1-----4---3-1-0---------------
G---------------------------2---------------2-0-------------2-----------
D---------------------------------------------------------------1-------
A---------------0-------2-------3-------0-------2-------3---------------
E-------0---------------------------------------------------------------