20140204

LUPIN THE THIRD THEME TAB (FINGERSTYLE GUITAR TAB)

Lupin The Third theme fingerstyle guitar cover by Mockingbirdravelle
The original video title says: アコギでルパン三世のテーマ'80 ソロギター
He uses half-step down tuning, download the TAB below



LUPIN THE THIRD THEME FINGERSTYLE TAB

GP5 + GP6 + PDF >>

Half-step down tuning

eb----------------------------------------------------------------------
Bb-x---x---x-x---x-x---x-x---x-x-x--x---x---x-x---x-x---x-x---x-x-x-----
Gb-x---x---x-x---x-x---x-x---x-x-x--x---x---x-x---x-x---x-x---x-x-x-----
Db-x---x---x-x---x-x---x-x---x-x-x--x---x---x-x---x-x---x-x---x-x-x-----
Ab-x---x---x-x---x-x---x-x---x-x-x--x---x---x-x---x-x---x-x---x-x-x-----
Eb----------------------------------------------------------------------


eb-------------------------------------------------------------<5>------
Bb-x---x---x-x---x-x---x-x---x-x-x--x--x--x--x--x--x--x--x--x--<5>------
Gb-x---x---x-x---x-x---x-x---x-x-x--x--x--x--x--x--x--x--x--x--<5>------
Db-x---x---x-x---x-x---x-x---x-x-x--x--x--x--x--x--x--x--x--x--<5>------
Ab-x---x---x-x---x-x---x-x---x-x-x--x--x--x--x--x--x--x--x--x--<5>------
Eb-------------------------------------------------------------<5>------



Part 1

eb----------------------------------------------------------------------
Bb-----------0.---------------------------------------------------------
Gb---------0-----3-----2p0-2-----------0--------2.--3-----2.----0.------
Db-----2.--------2---------1---0h2-----0-2-0h2h4----2-----1.----0.------
Ab---------4---------------2------------------------3-----2.------------
Eb-0-------------2-----------------0--------------------------3---------



eb-------------------------------------0.----------------2---2-2--------
Bb-----0.----0.------------------------0.----3.----1h3p1-0---0-0--------
Gb---------0-----3-----2p0-2-----------------2.----0-----2---2-2--------
Db---------------2---------1---0h2---------0-------------1---1-1--------
Ab---------4---------------2---------------------3-------2---2-2--------
Eb-0-------------2-----------------0------------------------------------


eb----------------------------------------------------------------------
Bb----------------------------------------------------------------------
Gb-----------0.--2-------x---x-------2.----0.--2-------x----------------
Db-----2.----0.--2-------x---x-------2.----2.--1-------x----------------
Ab-----2.--------0-------x-----------------3.--2-------x----------------
Eb-0---------3.------------------2--------------------------------------


eb-0--------------------------------------------------------------------
Bb-0-----3.----0-----------------------------------3--------------------
Gb-0-----0.----0-----3-----2.----------------------2--------------------
Db-2-----0.----2-----2---------1---2.--------------1--------------------
Ab-2-----------4-----------3.--2---2.--------------2--------------------
Eb-0-----3.----------2-------------0.-----------------------------------




Part 2

eb----------------0-----------------x-1/2-------------------------------
Bb-3.-------3-----------------------x---------3---0---------------------
Gb-2.---2/4---4-------------6-----4-x-----------------------------------
Db-1.-----------------------7-----5-x-----------------------------------
Ab-2.-----------------------7-----5-x-----------------------------------
Eb------------------0.--0-----------x-----------------------------------


eb-----------------x-------------0---2---0---------x---1/2-----0--------
Bb-----------------x-------3-----------3-----------x---------3-----0----
Gb---------6-----4-x---2/4---4-------------6-----4-x--------------------
Db---------7-----5-x-----------------------7-----5-x--------------------
Ab---------7-----5-x-----------------------7-----5-x--------------------
Eb-0.--0-----------x---------------0---------------x--------------------


eb-----------------x---0---0-5/7---5-----------------x----------------0-
Bb-----------------x-------------------------5---\---x-5.----7.----8----
Gb---------6-----4-x-------------------------6---\---x-5.----7.----9----
Db---------7-----5-x-------------------------7---\---x-5.----7.----8----
Ab---------7-----5-x-----------------0.--0-----------x------------------
Eb-0.--0-----------x---------------------------------x-5.----7.----8----


eb-------------0---7.-------x-------------1/2---------------------------
Bb---------------------10---x---------------------3.--------------------
Gb---------------------9----x-3-----2.----------------------------------
Db---------1.----------8----x-2-----1.----------------------------------
Ab---------------------9----x-3-----2.----------------------------------
Eb-8\--1.--0.---------------x-------------------------------------------


eb-0--------------------------------------------------------------------
Bb-----------0.---------------------------------------------------------
Gb---------0-----3-----2p0-2--------------------------------------------
Db-----2.--------2---------1---0h2-----2p0------------------------------
Ab---------4---------------2---------------2p0--------------------------
Eb-0-------------2-----------------0.----------2h3----------------------



Part 3

eb----------------0-----------------x-1/2-------------------------------
Bb----------3-----------------------x---------3---0---------------------
Gb------2/4---4-------------6-----4-x-----------------------------------
Db-2.-----------------------7-----5-x-----------------------------------
Ab-2.-----------------------7-----5-x-----------------------------------
Eb-0----------------0.--0-----------x-----------------------------------


eb-----------------x-------------0---2---0---------x---1/2-----0--------
Bb-----------------x-------3-----------3-----------x---------3-----0----
Gb---------6-----4-x---2/4---4-------------6-----4-x--------------------
Db---------7-----5-x-----------------------7-----5-x--------------------
Ab---------7-----5-x-----------------------7-----5-x--------------------
Eb-0.--0-----------x---------------0---------------x--------------------


eb-----------------x---0---0-5/7---5-----------------x----------------0-
Bb-----------------x-------------------------5---\---x-5.----7.----8----
Gb---------6-----4-x-------------------------6---\---x-5.----7.----9----
Db---------7-----5-x-------------------------7---\---x-5.----7.----8----
Ab---------7-----5-x-----------------0.--0-----------x------------------
Eb-0.--0-----------x---------------------------------x-5.----7.----8----


eb-------------0---7.---------------------1/2---------------------------
Bb---------------------10---x---------------------3.--------------------
Gb---------------------9----x-3-----2.------------------3-----2.----0---
Db---------1.----------8----x-2-----1.------------------2-----1.----0---
Ab---------------------9----x-3-----2.----------------------------------
Eb-8\--1.--0.-------------------------------------------0-----0.----0---





DOWNLOAD THIS TAB IN GUITAR PRO



  • click 'Free Download'
  • add your e-mail address
  • you will get an e-mail with your download links (in a few seconds)
  • download the Guitar Pro 6 tab + GP5 + PDF for free
  • and that's all ...


Guitar Pro: a complete workshop for guitarists at an affordable price