20140202

OSAMURAI SAN SENKOU TAB (ACOUSTIC GUITAR TAB)


Osamurai San plays his own song called 'Senkou' with an acoustic guitar
The word 'Senkou' means flash. It's in Dropped D tuning (that is D A D G B E)
Download the TAB under the video



OSAMURAI SAN SENKOU GUITAR TAB


Part 1

e-----------------------------------------------------------------------
B-----------------------------------------------------------------------
G-----7-----9-----10-----9-----7.------7-----9-----10-----9-----7.------
D-----7-----7-----7------7-----7.------7-----7-----7------7-----7.------
A-----------------------------------------------------------------------
D-8-------8-----8------8-----8-----7-------7-----7------7-----7---------


e-----------------------------------------------------------------------
B-----------------------------------------------------------------------
G-----7-----9-----10-----9-----7.------9-----9-----9-----9-----9.-------
D-----6-----6-----6------6-----6.------7-----7-----7-----7-----7.-------
A-----------------------------------------------------------------------
D-6-------6-----6------6-----6-----7-------7-----7-----7-----7----------


e-----------------------------------------------------------------------
B-8-----8-----8---x-x-x---x-------x-x-----------------------------------
G-9-----9-----9---x-x-x---x-------x-x-----------------------------------
D-7-----7-----7---x-x-x---x-------x-x-----------------------------------
A-7-----7-----7---x-x-x---x-------x-x-----------------------------------
D-7-----7-----7-----------12-\\\----------------------------------------



Part 2

e-----------------------------------------------------------------------
B-3-----3-5-3-6---5-5-5-5-3---3-3-3-----3-5-3-6---5-5-5-5-3---3-3-------
G-2-----2-2-2-2---2-2-2-2-2---2-2-3-----3-3-3-3---3-3-3-3-3---3-3-------
D-0-----0-0-0-0---0-0-0-0-0---0-0-0-----0-0-0-0---0-0-0-0-0---0-0-------
A-0-----0-0-0-0---0-0-0-0-0---0-0-0-----0-0-0-0---0-0-0-0-0---0-0-------
D-0-----0-0-0-0---0-0-0-0-0---0-0-0-----0-0-0-0---0-0-0-0-0---0-0-------


e-----------------------------------------------------------------------
B-3-----3-5-3-6---5-5-5-5-3---3-3-2-----2-3-2-5---3-3-3-3-2---2-2-------
G-4-----4-4-4-4---4-4-4-4-4---4-4-3-----3-3-3-3---3-3-3-3-3---3-3-------
D-3-----3-3-3-3---3-3-3-3-3---3-3-2-----2-2-2-2---2-2-2-2-2---2-2-------
A-0-----0-0-0-0---0-0-0-0-0---0-0-0-----0-0-0-0---0-0-0-0-0---0-0-------
D-0-----0-0-0-0---0-0-0-0-0---0-0---------------------------------------


e-----------------------------------------------------------------------
B-3-----3-5-3-6---5-5-5-5-3---3-3-3-----3-5-3-6---5-5-5-5-3---3-3-------
G-2-----2-2-2-2---2-2-2-2-2---2-2-3-----3-3-3-3---3-3-3-3-3---3-3-------
D-0-----0-0-0-0---0-0-0-0-0---0-0-0-----0-0-0-0---0-0-0-0-0---0-0-------
A-0-----0-0-0-0---0-0-0-0-0---0-0-0-----0-0-0-0---0-0-0-0-0---0-0-------
D-0-----0-0-0-0---0-0-0-0-0---0-0-0-----0-0-0-0---0-0-0-0-0---0-0-------


e---------------------------------------------3---3-3-3-3---------------
B-3-----3-5-3-6---5-5-5-5-3---3-3-2-----2-2---2---2-2-2-2-0-------------
G-4-----4-4-4-4---4-4-4-4-4---4-4-3-----3-3---3---3-3-3-3-0-------------
D-3-----3-3-3-3---3-3-3-3-3---3-3-2-----2-2---2---2-2-2-2-0-------------
A-0-----0-0-0-0---0-0-0-0-0---0-0-0-----0-0---0---0-0-0-0-0-------------
D-0-----0-0-0-0---0-0-0-0-0---0-0---------------------------------------



Part 3

e-1---------------------3-1---------------------------------------------
B-x-----------------1---1---------1-x-1---------------3-------x---------
G-2-----2-x---------0---0---------2-x-2---------------3-----5-x---------
D-3-----3-x-----------------------3-x-3-----------------------x---------
A-1---------1---------------0---------0-----------------------x---------
D----------------------------------------/5---3---0---5-----------------


e-------0---0---------x-------------------------------------------------
B-3---------1-------1-x-1-----------------------------------------------
G-3---------2-------3-x-2-----------------------------------------------
D-2-------------------x-------------------------------------------------
A-3-------------------x-------------------------------------------------
D-------------3-------x-3---0---0---------------------------------------