20140228

RAFA EL TACHUELA MORENA TAB

Brilliant instrumental flamenco guitar song called Rafa El Tachuela - Morena
Use standard tuning with CAPO on the 4th and a '-4-' in the tab means the open string
Download the TAB under video



RAFA EL TACHUELA MORENA TAB


Part 1

e---------4-------4-----4-----------------4-------4-----4---------------
B-------5---5---5-----5-----5-----------5---5---5-----5-----5-----------
G-----8-------8-----8---8-----8-------8-------8-----8---8-----8---------
D-----------------6-------------------------------6---------------------
A-4-----------------------------4---------------------------------------
E---------------------------------7-----------------------------7-------


e---------4-------4-----4---------------------4-------------------------
B-------5---5---5-----5-----5---------------4--4------------------------
G-----6-------6-----6---6-----6-----------6-----6--p5-------------------
D-----------------6---------------------6--------6----------------------
A-------------------------------------6-----------6---------------------
E-5-----------------------------5-4----------------4--------------------


e---------4-------4-----4-----------------4-------4-----4---------------
B-------5---5---5-----5-----5-----------5---5---5-----5-----5-----------
G-----8-------8-----8---8-----8-------8-------8-----8---8-----8---------
D-----------------6-------------------------------6---------------------
A-4-----------------------------4---------------------------------------
E---------------------------------7-----------------------------7-------



e---------4-------4-----4-------------4-4-4-4-4-4--------------------9--
B-------5---5---5-----5---------------4-4-4-4-4-4----------9---10-12----
G-----6-------6-----6---6-------------6-6-6-6-6-5-----------------------
D-----------------6-------------------6-6-6-6-6-6-----------------------
A-------------------------------------6-6-6-6-6-6-----------------------
E-5-----------------------------5-4-------------4-----------------------


Part 2

e-12p11p9-4-------4-9-12/16-16-16-14-16.--------------------------------
B-----------5---5-------------------------------------------------------
G-------------6---------------------------------------------------------
D-----------------------------------------------------------------------
A-----------------------------------------------------------------------
E-----------------------------------------------------------------------


e-11p9p7-----------7-11/14-14-14-12-14.---------------------------------
B--------7-------7------------------------------------------------------
G----------8---8--------------------------------------------------------
D------------9----------------------------------------------------------
A-----------------------------------------------------------------------
E-----------------------------------------------------------------------


e-9p7p5-----------5---------4-5-9-8p5p4-----------4-----4-5-7-9-11------
B-------5-------5-----4-5-7-------------4-------4---5-7-----------------
G---------6---6-----6---------------------5---5-------------------------
D-----------7-------------------------------6---------------------------
A-----------------------------------------------------------------------
E-----------------------------------------------------------------------


e-12p11p9-4-------4-9-12/16-16-16-14-16.--------------------------------
B-----------5---5-------------------------------------------------------
G-------------6---------------------------------------------------------
D-----------------------------------------------------------------------
A-----------------------------------------------------------------------
E-----------------------------------------------------------------------


e-11p9p7-----------7-11/14-14-14-12-14.---------------------------------
B--------7-------7------------------------------------------------------
G----------8---8--------------------------------------------------------
D------------9----------------------------------------------------------
A-----------------------------------------------------------------------
E-----------------------------------------------------------------------


e-9p7p5-----------5---------4-5-9-8p5p4-----------4h5-4---4-------------
B-------5-------5-----4-5-7-------------4-------4-------7---7-5-4-------
G---------6---6-----6---------------------5---5-------------------------
D-----------7-------------------------------6---------------------------
A-----------------------------------------------------------------------
E-----------------------------------------------------------------------


Part 3

e---------4-------4-----4-----------------4-------4-----4---------------
B-------5---5---5-----5-----5-----------5---5---5-----5-----5-----------
G-----8-------8-----8---8-----8-------8-------8-----8---8-----8---------
D-----------------6-------------------------------6---------------------
A-4-----------------------------4---------------------------------------
E---------------------------------7-----------------------------7-------