20140228

RAFA EL TACHUELA MORENA TAB


Brilliant instrumental flamenco guitar song called Rafa El Tachuela - Morena
Use standard tuning with CAPO on the 4th fret
Download the TAB under video



RAFA EL TACHUELA MORENA TAB

PDF + GUITAR PRO >>

Part 1

e---------0-------0-----0-----------------0-------0-----0---------------
B-------1---1---1-----1-----1-----------1---1---1-----1-----1-----------
G-----4-------4-----4---4-----4-------4-------4-----4---4-----4---------
D-----------------2-------------------------------2---------------------
A-0-----------------------------0---------------------------------------
E---------------------------------3-----------------------------3-------


e---------0-------0-----0---------------------0-------------------------
B-------1---1---1-----1-----1---------------0--0------------------------
G-----2-------2-----2---2-----2-----------2-----2-p1--------------------
D-----------------2---------------------2--------2----------------------
A-------------------------------------2-----------2---------------------
E-1-----------------------------1-0----------------0--------------------


e---------0-------0-----0-----------------0-------0-----0---------------
B-------1---1---1-----1-----1-----------1---1---1-----1-----1-----------
G-----4-------4-----4---4-----4-------4-------4-----4---4-----4---------
D-----------------2-------------------------------2---------------------
A-0-----------------------------0---------------------------------------
E---------------------------------3-----------------------------3-------


e---------0-------0-----0-------------0-0-0-0-0-0------------------5----
B-------1---1---1-----1---------------0-0-0-0-0-0----------5---6-8------
G-----2-------2-----2---2-------------2-2-2-2-2-1-----------------------
D-----------------2-------------------2-2-2-2-2-2-----------------------
A-------------------------------------2-2-2-2-2-2-----------------------
E-1-----------------------------1-0---0-0-0-0-0-0-----------------------


e---8p7p5-----------5-8/12-12-12-10-12.---------------------------------
B---------5-------5-----------------------------------------------------
G-----------5---5-------------------------------------------------------
D-------------7---------------------------------------------------------
A-----------------------------------------------------------------------
E-----------------------------------------------------------------------


e---7p5p3-----------3-7/10-10-10-8-10.----------------------------------
B---------3-------3-----------------------------------------------------
G-----------4---4-------------------------------------------------------
D-------------5---------------------------------------------------------
A-----------------------------------------------------------------------
E-----------------------------------------------------------------------


e---5p3p1-----------1---------0-1-5-4p1p0-----------0-----------5-7-----
B---------1-------1-----0-1-3-------------0-------0-------5-6-8---------
G-----------2---2-----2---------------------1---1-----5-7---------------
D-------------3-------------------------------2-------------------------
A-----------------------------------------------------------------------
E-----------------------------------------------------------------------

 etc ...