20140219

THE LORD OF THE RINGS THEME CLASSICAL GUITAR TAB


The Lord of the Rings theme - Forth Eorlingas on classical guitar by MrDreadSoul
The original piece was composed by Howard Shore
Download the TAB under the video



FORTH EORLINGAS CLASSICAL GUITAR TAB                   


Part 1

e-1---------1---------10-------------------12---------------------------
B-3-------3---3-------10----10----------10---------------10.------------
G-2-------------------10-12----------12-------------12------------------
D-0-------------------0-------------------------------------------------
A------------------------------------------0----------------------------
E-------------3---------------------------------------------------------


e-----------------------------------------------------------------------
B-6--6--6--6--6--6--8--8--8--8--8--8------------------------------------
G-7-----------------0---------------------------------------------------
D-7---------------------------------------------------------------------
A-5-----------------10--------------------------------------------------
E-----------------------------------------------------------------------


e-5--5--5--5--5--5--7--7--7--7--7--7------------------------------------
B-6-----------------7---------------------------------------------------
G-7-----------------7---------------------------------------------------
D-----------------------------------------------------------------------
A-5---------------------------------------------------------------------
E-------------------7---------------------------------------------------



e-5--5--5--5--5--5------------------------------------------------------
B-6-----------------12--12--12--12--12--12------------------------------
G-7-----------------12--------------------------------------------------
D-------------------12--------------------------------------------------
A-5-----------------10--------------------------------------------------
E-----------------------------------------------------------------------


e-8--8--8--8--8--8--8--8--8--8--8--8------------------------------------
B-----------------------------------------------------------------------
G-----------------------------------------------------------------------
D-----------------------------------------------------------------------
A-0-----------------0---------------------------------------------------
E-----------------------------------------------------------------------


e-5--5--5--5--5--5------------------------------------------------------
B-6-----------------10--10--10--10--10--10------------------------------
G-7-----------------10--------------------------------------------------
D-------------------8---------------------------------------------------
A-5-----------------8---------------------------------------------------
E-----------------------------------------------------------------------


e-6--6--6--6--6--6--6--6--6--6--6--6------------------------------------
B-6-----------------7---------------------------------------------------
G-----------------------------------------------------------------------
D-----------------------------------------------------------------------
A-6-----------------6---------------------------------------------------
E-----------------------------------------------------------------------


e-6--6--6--6--6--6--8--8--8--8--8--8------------------------------------
B-8-----------------8---------------------------------------------------
G-------------------9---------------------------------------------------
D-----------------------------------------------------------------------
A-6---------------------------------------------------------------------
E-------------------8---------------------------------------------------


e-8--8--8--8--8--8--8--8--8--8--8--8--8--8--8--8--8--8------------------
B-8-----------------9---------------------------------------------------
G-10----------------10----------------8---------------------------------
D-----------------------------------------------------------------------
A-8-----------------8-----------------11--------------------------------
E-----------------------------------------------------------------------


e-9--9--9--9--9--9--10--10--10--10--10--10--10--10--10--10--5-----------
B-11----------------11--------------------------------------6-----------
G-----------------------------------------------------------7-----------
D-----------------------------------------------------------0-----------
A-9-----------------9---------------------------------------------------
E-----------------------------------------------------------------------