20140321

MOON RIVER FINGERSTYLE CLASSICAL GUITAR TAB


Moon River fingerstyle classical guitar cover played by Kimiyoshi Akiyama
It's in standard tuning and no Capo is used
Download the TAB under the video



MOON RIVER FINGERSTYLE TAB

GP5 + GP6 + PDF >>

Part 1

e-----7-----------5-----------3-----------------------------------------
B-----8-----------7-----------5-----------5---4-------------------------
G---5-----5-----4-----4-----2-----2-------5-----------------------------
D-0-----------0-----------0-------------4-------------------------------
A-------------------------------------5---------------------------------
E-----------------------------------------------------------------------


Part 2

e-------------------5-----3-----------2--------0------------------------
B-3--------3--------0--------------0--------------3--1--3---------------
G-------4--------0--0-----------0-----------0-----------------0--------0
D----4--------4--------------2-----------2-----------------0-----0--4---
A-------------------------------------3-----------------2---------------
E-3-----------------0---------------------------------------------------


e-2--------0------------------------------------------------------------
B-------------3--1--3--------3--------------------------------0---------
G-------0-----------------0--------0--2--------2--5-----------------2---
D----2-----------------4--------4-----------4--------------1--------1---
A-3-----------------2--------------------3--------------2---------------
E-------------------------------------2---------------------------------



e-------------------------------------------0---------------------------
B-------------0-----3-----0-----------------1-----------3-----0---------
G-0--------0-----0--------0--------2--0--------------0--2-------------2-
D-------2--------------3--------3--------2--------2-----1---------------
A----2--------------------------------3---------------------------------
E-0-----------------3-----------------------------------1----------1----


e-------------------3-----2--------0--2-----------------0---------------
B-------0-----3-----------2-----------3--5-----------3--1-----3---------
G-0-----0-----------------3-----------2-----------1-----0-----5---------
D-------------2--------------------------------2--------2-----4---------
A----2--------------4-----------4-----2-----------------0-----5---------
E-0-----------------------------------------0-----------------------2---

 etc ...