20140311

BEATLES YESTERDAY CLASSICAL GUITAR TAB


The Beatles - Yesterday fingerstyle classical guitar cover by Kimiyoshi Akiyama
Brilliant classical guitar arrangement in standard tuning
Download the TAB under the video



YESTERDAY CLASSICAL FINGERSTYLE TAB

GP5 + GP6 + PDF >> 

Part 1

e-------------5-------5-------------------------5-------5---------------
B---------8---------------8-----------------8---------------8-----------
G-----7---------------------7-----------5---------------------5---------
D-5---------------------------------5-----------------------------------
A-----------------------------------------------------------------------
E-----------------------------------------------------------------------


e-------------5-------5---------------------------5---------------------
B---------8---------------8-----------------8---------------------------
G-----7---------------------7-----------5-------------------------------
D-5---------------------------------5-----------------------------------
A-----------------------------------------------------------------------
E-----------------------------------------------------------------------


Part 2

e-5---3---3------------------------------------9---11---12---14---15----
B-0-------------------0-------------------12----------------------------
G-0---------------0-----------0-------9---------------------------------
D-------------0------------------------------------9---------13---------
A---------------------------------9-------------------------------------
E-----------------------------------------------------------------------



e--14---------12----12--------------------------------------------------
B-------------0---------------0-----------------------------------------
G---------0--------<12>---------------0---------------------------------
D---------------------------------0-------------------------------------
A-----------------------------------------------------------------------
E-<12>------------------------------------------------------------------


e----------12---12---10---8---7--------8-------7---7-----------5--------
B----------8---------7------------10-----------------------0------------
G------------------------------------------7----------------------------
D-----10-------------0-----------------5---------------5-------4--------
A-----------------------------------------------------------------------
E-8---------------------------------------------------------------------


e-3-------7---5-------------------3-------7---7-------------------------
B-3-----------------------5-------3-----------0---------------0---------
G-4-------------------6-----------5-----------0-----------0-------------
D-2-------------------------------------------0-------0-----------------
A-----------------0---------------3-------------------------------------
E---------------------------------------------3-------------------------

 etc ...




<