20140503

CAROLE KING YOU'VE GOT A FRIEND TAB (INSTRUMENTAL GUITAR TABS)


Carole King - You've Got A Friend acoustic guitar cover by Phil McGarrick
This instrumental version is based on James Taylor's record from 1971
Download the TAB under the video



YOU'VE GOT A FRIEND INSTRUMENTAL TAB


Part 1

e-----------------------------------------------------------------------
B-----------------------------------------------------------------------
G-2---4---4/6~-------------------6---6---6(7)---6~----------------------
D-----------------------------------------------------------------------
A-----------------------------------------------------------------------
E-----------------------------------------------------------------------


e-----------------------------------------------------------------------
B-7---9---9(10)------------------(10)---(10)(9)---7---------------------
G-------------------------------------------------------6~--------------
D-----------------------------------------------------------------------
A-----------------------------------------------------------------------
E-----------------------------------------------------------------------


e-----------------------------------------------------------------------
B-----------------------------------------------------------------------
G-4---6---7~------7~------7~--------------------------------------------
D-----------------------------------------------------------------------
A-----------------------------------------------------------------------
E-----------------------------------------------------------------------



e-----------------------------------------------------------------------
B-7-------5-----------5---5h6h7---2~------------------------------------
G-----------------6-----------------------------------------------------
D-----------------------------------------------------------------------
A-----------------------------------------------------------------------
E-----------------------------------------------------------------------


e-----------------------------------------------------------------------
B-2h3p2-----2---2~---------------2---3p2---2---2~-----------------------
G-----------------------------------------------------------------------
D-----------------------------------------------------------------------
A-----------------------------------------------------------------------
E-----------------------------------------------------------------------


e-----------------------------------------------------------------------
B-2---/-10-------10---9---7--\---2~-------------------------------------
G-----------------------------------------------------------------------
D-----------------------------------------------------------------------
A-----------------------------------------------------------------------
E-----------------------------------------------------------------------


e-----------------------------------------------------------------------
B-----2---3~------3~------3~-------------7-\-5-------2---5---2----------
G-4-----------------------------------------------------------------4~--
D-----------------------------------------------------------------------
A-----------------------------------------------------------------------
E-----------------------------------------------------------------------


e-----------------------------------------------------------------------
B--------------7~------7---5h7p5---3h5p3--------------------------------
G-----------------------------------------------------------------------
D-----------------------------------------------------------------------
A-----------------------------------------------------------------------
E-----------------------------------------------------------------------


Part 2

e-----------------------------------------------------------------------
B-2---3-/-5---5~--------------2-h-3-p-2---5~----------------------------
G-----------------------------------------------------------------------
D-----------------------------------------------------------------------
A-----------------------------------------------------------------------
E-----------------------------------------------------------------------