20140518

SABICAS MALAGUENA TAB (FLAMENCO GUITAR TAB)


However it's almost impossible to learn Sabicas' guitar playing, there are some parts that might be good to work out and practice - like Part 5 and Part 7 - good luck :)
Download the TAB under the video



SABICAS MALAGUENA GUITAR TAB 


Intro

e-1-1-1-1-1-1-1-1--1-1-1-1-1-1-1-1--1-1-1-1-1-1-1-1--1-1-1-1-1-1-1-1----
B-1-1-1-1-1-1-1-1--1-1-1-1-1-1-1-1--1-1-1-1-1-1-1-1--1-1-1-1-1-1-1-1----
G-2-2-2-2-2-2-2-2--2-2-2-2-2-2-2-2--2-2-2-2-2-2-2-2--2-2-2-2-2-2-2-2----
D-3-3-3-3-3-3-3-3--3-3-3-3-3-3-3-3--3-3-3-3-3-3-3-3--3-3-3-3-3-3-3-3----
A-3-3-3-3-3-3-3-3--3-3-3-3-3-3-3-3--3-3-3-3-3-3-3-3--3-3-3-3-3-3-3-3----
E-1-1-1-1-1-1-1-1--1-1-1-1-1-1-1-1--1-1-1-1-1-1-1-1--1-1-1-1-1-1-1-1----


e-3-3-3-3-3-3-3-3--3-3-3-3-3-3-3-3--1-1-1-1-1-1-1-1--1-1-1-1-1-1-1-1----
B-3-3-3-3-3-3-3-3--3-3-3-3-3-3-3-3--1-1-1-1-1-1-1-1--1-1-1-1-1-1-1-1----
G-4-4-4-4-4-4-4-4--4-4-4-4-4-4-4-4--2-2-2-2-2-2-2-2--2-2-2-2-2-2-2-2----
D-5-5-5-5-5-5-5-5--5-5-5-5-5-5-5-5--3-3-3-3-3-3-3-3--3-3-3-3-3-3-3-3----
A-5-5-5-5-5-5-5-5--5-5-5-5-5-5-5-5--3-3-3-3-3-3-3-3--3-3-3-3-3-3-3-3----
E-3-3-3-3-3-3-3-3--3-3-3-3-3-3-3-3--1-1-1-1-1-1-1-1--1-1-1-1-1-1-1-1----


e-0-0-0-0-0-0-0-0--0-0-0-0-0-0-0-0--0-0-0-0-0-0-0-0--0------------------
B-0-0-0-0-0-0-0-0--0-0-0-0-0-0-0-0--0-0-0-0-0-0-0-0--0------------------
G-1-1-1-1-1-1-1-1--1-1-1-1-1-1-1-1--1-1-1-1-1-1-1-1--1------------------
D-2-2-2-2-2-2-2-2--2-2-2-2-2-2-2-2--2-2-2-2-2-2-2-2--2------------------
A-2-2-2-2-2-2-2-2--2-2-2-2-2-2-2-2--2-2-2-2-2-2-2-2--2------------------
E-0-0-0-0-0-0-0-0--0-0-0-0-0-0-0-0--0-0-0-0-0-0-0-0--0------------------



e-----------------------------------------------------------------------
B-0-1-3---0-1-3---1---0-------0-------0---1---0-------------------------
G-1-1-1---1-1-1---1---1---1-2-2---1-2-2---2---1-------------------------
D-3-3-3---3-3-3---3---3---3-3-3---3-3-3---3---3-------------------------
A-----------------------------------------3-----------------------------
E-----0-------0-------0-------0-------0-------0-------------------------


e-----------------------------------------------------------------------
B-0-1-3---0-1-3---1---0-------0-------0---1---0-------------------------
G-1-1-1---1-1-1---1---1---1-2-2---1-2-2---2---1-------------------------
D-3-3-3---3-3-3---3---3---3-3-3---3-3-3---3---2-------------------------
A-----------------------------------------3-----------------------------
E-----0-------0-------0-------0-------0-------0-------------------------


e-----0---------0-------------------------0---1---0---------------------
B-0-1-0-----0-1-0---3---1-------0-1---1-3-0---1---0---------------------
G-----1---------1---1---2-----2-2-2-------1---2---1---------------------
D-----2---------2---2---3-----3-3-3-------2---3---2---------------------
A-----2---------2---2---3---------3-------------------------------------
E-----0---------0---0---0-----------------------------------------------


e-----0---------0-------------------------0---1---0---------------------
B-0-1-0-----0-1-0---3---1-------0-1---1-3-0---1-------------------------
G-----1---------1---1---2-----2-2-2---2---1---2-------------------------
D-----2---------2---2---3-----3-3-3---3---2---3-------------------------
A-----2---------2---2---3---------3-------------------------------------
E-----0---------0---0---0-------------------------0---------------------


(4/16)
e--12-----12----12---12----12---12--------------------------------------
B----9------9-----9----9-----9----9-------------------------------------
G-9---9-10---9-9---9----9-----9----9------------------------------------
D-------------------9---------------------------------------------------
A------------------------11---------------------------------------------
E------------------------------0----------------------------------------


e--12-----12----12---12----12------12.----------------------------------
B----9------9-----9----9-----9-----9.-----------------------------------
G-9---9-10---9-9---9----9-----9----9.-----------------------------------
D-------------------9--------------9.-----------------------------------
A------------------------11---------------------------------------------
E------------------------------0----------------------------------------


Part 2     (5/16)

e--4-4-4-4--5-5-5-7--7-7-10-10--10-10-10-10--10-10-10-10--10-10-10-10---
B-----------------------------------------------------------------------
G--------------------------------------------------------7--------------
D----------6--------------------------------9---------------------------
A------------------------------7----------------------------------------
E-0-----------------0---------------------------------------------------


e---10-10-10-10---8-7-7------------7-8---8-8-8-8----8-8-8-8----8-8-8-8--
B-----------------------10---10-10--------------------------10----------
G-----------------------------------------------------------------------
D---------------9----------9---------------------10---------------------
A-7------------------------------------8--------------------------------
E-----------------------------------------------------------------------


e----------------------------8-8-8-8--10-10-12-10--8-8-8-8--------------
B--10-10-10-10--12-12-12-12---------------------------------12-12-12-12-
G-----------------------------------------------------------------------
D-------------10--------------------10--------------------10------------
A-8-------------------------8---------------------8---------------------
E-----------------------------------------------------------------------


e-----------------------7---7-7-7-7---7-7-7-7---7-7-7-7-----------------
B--10-10-10-10--10-10-9-----------------------9-----------9-9-9-9-------
G-----------------------------------------------------------------------
D-------------10--------------------9-----------------------------------
A-8-----------------------7-----------------------------7---------------
E-----------------------------------------------------------------------


e----------------7-7-7-10---10-10-12-13--13-13-13-13--12-12-12-12-------
B--10-10-10-10----------------------------------------------------------
G--------------------------------------10-------------------------------
D-9-----------------------9-------------------------10------------------
A--------------7--------------------------------------------------------
E-----------------------------------------------------------------------


e----10-10-10-10--------------------------------------------------------
B-----------------------------------------------------------------------
G-10--------------------------------------------------------------------
D-----------------------------------------------------------------------
A-----------------------------------------------------------------------
E-----------------------------------------------------------------------


e-----------------------------10-10-10-10--10-10-10-10------------------
B---13-12-12-12--10-12-12-12----------------------------13-13-13-13-----
G--------------10------------------------10-----------------------------
D-10------------------------10------------------------10----------------
A-----------------------------------------------------------------------
E-----------------------------------------------------------------------


e-----------------------------------------------------------------------
B----12-12-12-12--------------------------------------------------------
G-----------------------------------------------------------------------
D-----------------------------------------------------------------------
A-10--------------------------------------------------------------------
E-----------------------------------------------------------------------


e----------------------------------------------------------------0------
B------10-10-10--10-10-10-10--8-8-8-8--8-8-8-8---8--------------0-0-----
G--------------------------------------------------10-10-------1---1----
D-12\10--------10--------------------10-----------------------2-----2---
A---------------------------8------------------8---------------------2--
E--------------------------------------------------------0------------0-


Part 3

e-0-1-3-1-0-------------------------------------------------------------
B-------------0-3-1-0-1h3p1p0-------0-1-0-3-1-0-------------------------
G-----------------------------2-1-2-------------2-1---------------------
D---------2-----------3---------------3-------------2-------------------
A-----------------------------------------------------------------------
E-------------------------------------------------0---------------------