20140514

THE ROLLING STONES SYMPATHY FOR THE DEVIL SOLO TAB (LIVE)

The Rolling Stones - Sympathy For The Devil guitar solo by K. Richards & M. Taylor
This particular solo is on the Get Yer Ya-Ya's Out album
Download the TAB under the video




SYMPATHY FOR THE DEVIL SOLO TAB


Part 1

e-----------------------------------------------------------------------
B-----------------------------------------------------------------------
G-----------------------------------------------------------------------
D----------------------------5--------------------------5h7~------------
A------------------------7--------------------------7-------------------
E---0-------------------------------------------------------------------


e-----------------------------------------------------------------------
B-----------------------------------------------------------------------
G-----------------------------------------------------------------------
D--------7-5------------------------------------------------------------
A----------------7~-----------------------------------------------------
E-----------------------------------------------------------------------


e-----------------------------------------------------------------------
B-----------------------------------------------------------------------
G-----------------------------------------------------------------------
D-----------------------------------5'-------------------5h7~-----------
A---------------------/7.--/7.--7.-------------------7------------------
E---///7.---------------------------------------------------------------


e-----------------------------------------------------------------------
B-----------------------------------------------------------------------
G-----------------------------------------------------------------------
D---7-5-7-5---7/9~------------------------------------------------------
A-----------------------------------------------------------------------
E-----------------------------------------------------------------------


e-----------------------------------------------------------------------
B---------------8'----------------------------10(12)-8-------8'---------
G-------7.--9.--------9~------------------9.-----------9----------------
D---9.------------------------------------------------------------------
A-----------------------------------------------------------------------
E-----------------------------------------------------------------------


e-----------------------------------------------------------------------
B-------10(12)---10(12)---10(12)-10.--8-10.--10(12)---8.----------------
G---9-----------------------------------------------------9-7.--9~------
D-----------------------------------------------------------------------
A-----------------------------------------------------------------------
E-----------------------------------------------------------------------


e-----------------------------------------------------------------------
B---8-----10(12)---8-----10-8-------------8-\\\-------------------------
G-------9--------------9------9.--9~------------------------------------
D-----------------------------------------------------------------------
A-----------------------------------------------------------------------
E-----------------------------------------------------------------------