20140627

JAMES BOND THEME FINGERSTYLE GUITAR TAB


The James Bond Theme fingerstyle guitar cover played by Michael Lucarelli
It's in standard tuning and no Capo is used
Download the TAB under the video



THE JAMES BOND THEME FINGERSTYLE TAB

GP5 + GP6 + PDF >>

Part 1

e-----------------------------------------------------------------------
B-----------------------------------------------------------------------
G-----------------------------------------------------------------------
D-----------------------------------------------------------------------
A-2---------------3---------------4---------------3---------------------
E---------0---------------0---------------0---------------0-------------


e-----------------------------------------------------------------------
B-----------------------------------------------------------------------
G-----------------------------------------------------------------------
D-----------------------------------------------------------------------
A-2---------------3---------------4---------------3---------------------
E---------0---------------0---------------0---------------0-------------


e-0---0---2---2-------0---0---0---0---0-0-3---3-------2---2---2---------
B-----------------------------------------------------------------------
G-----------------------------------------------------------------------
D-----------------------------------------------------------------------
A-2---------------3---------------4---------------3---------------------
E---------0---------------0---------------0---------------0-------------



e-0---0-0-2---2-------0---0---0---0---0-0-3---3-------2---2---2---------
B-----------------------------------------------------------------------
G-----------------------------------------------------------------------
D-----------------------------------------------------------------------
A-2---------------3---------------4---------------3---------------------
E---------0---------------0---------------0---------------0-------------


e-0---0-0-2---2-------0---0---0---0---0-0-3---3-------2---1---0---------
B-----------------------------------------------------------------------
G-----------------------------------------------------------------------
D-----------------------------------------------------------------------
A-2---------------3---------------4---------------3---------------------
E---------0---------------0---------------0---------------0-------------


e-11--10------------------7---5---7-------------------------------------
B-----------------------------------------------------------------------
G-----------------------------------------------------------------------
D-----------------------------------------------------------------------
A-----------------------------------------------------------------------
E-7-------0-------8-------0-------9-------0-------8-------0-------------

 etc ...