20140702

ALAN MENKEN A WHOLE NEW WORLD TAB (FINGERSTYLE CLASSICAL GUITAR TAB)

Alan Menken - A Whole New World fingerstyle guitar cover played by Chamacojesus
He has already shared a tablature in his blog but this one is more accurate
It's in Dropped D tuning, download the TAB under the video



ALADDIN A WHOLE NEW WORLD FINGERSTYLE TAB

GP5 + GP6 + PDF >>

Part 1                      Dropped D tuning

e-----------------------------------------------------------------------
B-7-----------7---------------8-------------------10------8-------------
G-6-----------6---------------7-----------------------------------------
D-7-------7-----------7.------8---------------7-------7-------7---------
A-----------------------------0-----------------------------------------
D-0---------------0-----------------------------------------------------


e-----------------------------------------------------------------------
B-7-----------7---------------8-------------------10------8-------------
G-6-----------6---------------7-----------------------------------------
D-7-------7-----------7.------8---------------7-------7-------7---------
A-----------------------------0-----------------------------------------
D-0---------------0-----------------------------------------------------


Part 2

e-----------------------------------------------------------------------
B-7-----------7h8-----7-------------------7-------10------8-------------
G-6-------9---------------7-p-6-------6-----------7-----------7---------
D-7---7---------------------------7-----------7---8---8-----------------
A-------------------------0-----------------------0---------------------
D-0---------------0---------------0-------------------------------------



e-----------------------------------------------------------------------
B-7-----------7h8-----7-----------7---------------5---------------------
G-6-------9------------------7----7-----------7-----------6-------------
D-7---7-----------------------------------5-------5---------------------
A-------------------------------------5---------------------------------
D-0---------------0-------0-----0-5---------------7-----------0---------


e-0-------------------0-------------------------------------------------
B-------------6/7---------2-------5-------3-------2-------3-------------
G---------7-------------------3---2-----------2---0-----------0---------
D-----8-----------8-------------------4---------------2-----------------
A---------------------------------2---------------0---------------------
D-8-----------8-----------4---------------------------------------------


e-----------------------------------------------------------------------
B-0-------2---2h5-----3-------------------7-----------8-----------------
G-0-------0---0-------0-------------------6-----------7-----------------
D-----0-----------------------4/7-----7-----------7---8-----------------
A-----------------------------------------------------0-----------------
D-5---------------5-------5-------0-----------0-------------------------


Part 3

e-----------------------------------------------------------------------
B-7-----------7h8-----7-------------------------------------------------
G-6-------9---------------7---\---2-------------------------------------
D-7---7-------------------7---\---4-------2---4h5-----5p4---0-----------
A-------------------------0-----------0---------------------1-p-0-------
D-0---------------0---------------0---------------0---------------------


e-----------------------------------------------------------------------
B-7-----------7h8-----7-----------7---------------5---------------------
G-6-------9------------------7----7-----------7-----------6-------------
D-7---7----------------------7------------5-------5-------5-------------
A-------------------------------------5---------------------------------
D-0---------------0-------0-----0-5---------------7-----------0---------





DOWNLOAD THIS TAB IN GUITAR PRO



  • click 'Free Download'
  • add your e-mail address
  • you will get an e-mail with your download links (in a few seconds)
  • download the Guitar Pro 6 tab + GP5 + PDF for free
  • and that's all ...


Guitar Pro: a complete workshop for guitarists at an affordable price