20140718

ALICE IN CHAINS DON'T FOLLOW FINGERSTYLE GUITAR TAB


Alice In Chains - Don't Follow fingerstyle guitar cover played by Phil Jakes
It's in Dropped C# tuning (that is C# G# C# F# A# D#) 
Download the TAB under the video



DON'T FOLLOW FINGERSTYLE TAB


Part 1

D#---------2---------------2---------------0----------------------------
A#---3-------3-------3-------3-------3-------3-----3p2-----2------------
F#-----2---------2-----2---------2-----0---------0-----2-----2---2------
C#-------0-----0---------0-----0---------0-----0---------2-----2--------
G#-------------------------------------------------0--------------------
C#-0---------------4---------------5------------------------------------


D#---------2---------------2---------------0----------------------------
A#---3-------3-------3-------3-------3-------3-----3p2-----2------------
F#-----2---------2-----2---------2-----0---------0-----2-----2---2------
C#-------0-----0---------0-----0---------0-----0---------2-----2--------
G#-------------------------------------------------0--------------------
C#-0---------------4---------------5------------------------------------


D#---------2---------------2---------------0----------------------------
A#-----3-----3-------3-------------------3---3--------------------------
F#-2-------------2-----2-----4p2---2p0-----------0----------------------
C#-------0-----0---------0-------0-----0-------0---5\4-4\2-2-2/4--------
G#-------------------------------------------------0--------------------
C#-0---------------4---------------5------------------------------------



D#---------2---------------2---------------0----------------------------
A#-----3-----3-------3-------3-------3-------3-----3p2-----2------------
F#-2-------------2-----2---------2-----0---------0-----2-----2---0------
C#-------0-----0---------0-----0---------0-----0---------2-----2--------
G#-------------------------------------------------0--------------------
C#-0---------------4---------------5------------------------------------


D#---------2---------------2---------------0----------------------------
A#-----3-----3-------3-------------------3---3--------------------------
F#-2-------------2-----2-----4p2---2p0---------0-0----------------------
C#-------0-----0---------0-------0-----0-----------5\4-4-2---2/4--------
G#-------------------------------------------------0--------------------
C#-0---------------4---------------5------------------------------------


D#---------2---------------2---------------0----------------------------
A#-----3-----3-------3-------3---------3-----3-----3p2-----2------------
F#-2-------------2-----2---------2---0-----------0-----2-----2---2------
C#-------0-----0---------0-----0---------0-----0---------2-----2--------
G#-------------------------------------------------0--------------------
C#-0---------------4---------------5------------------------------------


D#-------2---------2-----2-----2---2------------------------------------
A#-3-------3-----3-3-------3-5-3---3-0-3-----3---3-3p--2---2---2-2h3----
F#-2-----------2---------------------0-4-----4---4-4p--2---2---2-2------
C#-----0-----0-----------------------------0----------------------------
G#-------------------------------------------------0-----0---0----------
C#-0---------------4---4-----------5-----5-----5------------------------


D#---2-----2---------------2---------------0----------------------------
A#-----3-----3-------3-------3-------3-------3---0----------------------
F#---------------2-----2---------2-----0-------0------------------------
C#-------0-----0---------0-----0---------0---------5---5-4.--2-2/4.-----
G#-------------------------------------------------0--------------------
C#-0---------------4---------------5------------------------------------


D#---------3---------------3--------------------------------------------
A#-------3---3---3-------3---3-----3p2-----2----------------------------
F#-----0-------0-------0---------0-----2-----2--------------------------
C#-2p0---------------0---------0---------2-----2---5---5-4.--2---2------
G#---------------------------------0-------------0----------------------
C#-5---------------5----------------------------------------------------


Part 2

D#---------2---------------2---------------0----------------------------
A#-----3-----3-------3-------3---------3-----3-----3p2-----2------------
F#-------2-------2-----2---------2---0---0-------0-----2-----2---2------
C#-2p0---------0---------0-----0---------------0---------2-----2--------
G#-------------------------------------------------0--------------------
C#-0---------------4---------------5------------------------------------


D#---------2---------------2---------------0----------------------------
A#---3-------3-------3-------3-------3-------3-----3p2-----2------------
F#-----2---------2-----2---------2-----0---------0-----2-----2---2------
C#-------0-----0---------0-----0---------0-----0---------2-----2--------
G#-------------------------------------------------0--------------------
C#-0---------------4---------------5------------------------------------