20140710

THE LONELY SHEPHERD INSTRUMENTAL GUITAR TAB


James Last - The Lonely Shepherd easy instrumental guitar cover by Burns Ernst
There is a 2nd guitar line by 3:00 in the background
Download the TAB under the video



THE LONELY SHEPHERD INSTRUMENTAL TAB

GP5 + GP6 + PDF >>

Part 1

e-----------------------------9---14-12-14------------------------------
B-----------9---9---10---10---------------------------------------------
G-11---11---------------------------------------------------------------
D-----------------------------------------------------------------------
A-----------------------------------------------------------------------
E-----------------------------------------------------------------------


e-12-10-12--------------------------------------------------------------
B------------------------12-(14)---(14)---------------------------------
G-----------------------------------------------------------------------
D-----------------------------------------------------------------------
A-----------------------------------------------------------------------
E-----------------------------------------------------------------------


e-----------------------------9---14-12-14------------------------------
B-----------9---9---10---10---------------------------------------------
G-11---11---------------------------------------------------------------
D-----------------------------------------------------------------------
A-----------------------------------------------------------------------
E-----------------------------------------------------------------------



e-12-10-12--------------------------------------------------------------
B------------------------12-(14)---(14)---------------------------------
G-----------------------------------------------------------------------
D-----------------------------------------------------------------------
A-----------------------------------------------------------------------
E-----------------------------------------------------------------------


Part 2

e-----------------------------------------------------------------------
B-12(14)-------12-10---10------------------17(19)-------17-15---15------
G-----------------------------------------------------------------------
D-----------------------------------------------------------------------
A-----------------------------------------------------------------------
E-----------------------------------------------------------------------


e------------------------------------------10------10---9-9-------------
B-12-\\-//-----10-9---9-------------------------------------------------
G-----------------------------------------------------------------------
D---tremolo-------------------------------------------------------------
A-----------------------------------------------------------------------
E-----------------------------------------------------------------------


e-----------------------------------------------------------------------
B-12(14)-------12---10-10------------------17(19)-------17-15---15------
G-----------------------------------------------------------------------
D-----------------------------------------------------------------------
A-----------------------------------------------------------------------
E-----------------------------------------------------------------------


e-10-------10-9---------------------------------------------------------
B---------------9------------------------9---12-/-14-14-----------------
G-----------------------------------------------------------------------
D-----------------------------------------------------------------------
A-----------------------------------------------------------------------
E-----------------------------------------------------------------------

 etc ...