20140713

SLASH & MYLES KENNEDY SWEET CHILD O' MINE TAB (ACOUSTIC, LIVE, MAX SESSIONS)

Slash and Myles Kennedy play Sweet Child O' Mine on the Australian Max Sessions
Two acoustic guitars in half-step down tuning and Myles' voice
Download the TAB under the video



SLASH & MYLES KENNEDY SWEET CHILD O' MINE ACOUSTIC TAB


Part 1

D#-------------15----14----------------15----14-------------------------
A#----15----------------------15----------------------------------------
F#-------14-12----14----14-------14-12----14----14----------------------
C#-12----------------------12-------------------------------------------
G#----------------------------------------------------------------------
D#----------------------------------------------------------------------


D#-------------15----14----------------15----14-------------------------
A#----15----------------------15----------------------------------------
F#-------14-12----14----14-------14-12----14----14----------------------
C#-14----------------------14-------------------------------------------
G#----------------------------------------------------------------------
D#----------------------------------------------------------------------


D#-------------15----14----------------15----14-------------------------
A#----15----------------------15----------------------------------------
F#-12----14-12----14----14-12----14-12----14----14----------------------
C#----------------------------------------------------------------------
G#----------------------------------------------------------------------
D#----------------------------------------------------------------------



D#-------------15----14----------------15----14-------------------------
A#----15----------------------15----------------------------------------
F#-------14-12----14----14-------14-12----14----14----------------------
C#-12----------------------12-------------------------------------------
G#----------------------------------------------------------------------
D#----------------------------------------------------------------------


D#-------------15----14----------------15----14-------------------------
A#----15----------------------15----------------------------------------
F#-------14-12----14----14-------14-12----14----14----------------------
C#-12----------------------12-------------------------------------------
G#----------------------------------------------------------------------
D#----------------------------------------------------------------------


D#-------------15----14----------------15----14-------------------------
A#----15----------------------15----------------------------------------
F#-------14-12----14----14-------14-12----14----14----------------------
C#-14----------------------14-------------------------------------------
G#----------------------------------------------------------------------
D#----------------------------------------------------------------------


D#-------------15----14----------------15----14-------------------------
A#----15----------------------15----------------------------------------
F#-12----14-12----14----14-12----14-12----14----14----------------------
C#----------------------------------------------------------------------
G#----------------------------------------------------------------------
D#----------------------------------------------------------------------


D#-------------15----14----------------15----14-------------------------
A#----15----------------------15----------------------------------------
F#-------14-12----14----14-------14-12----14----14----------------------
C#-12----------------------12-------------------------------------------
G#----------------------------------------------------------------------
D#----------------------------------------------------------------------


D#-------------15----14----------------15----14-------------------------
A#----15----------------------15----------------------------------------
F#-------14-12----14----14-------14-12----14----14----------------------
C#-12----------------------12-------------------------------------------
G#----------------------------------------------------------------------
D#----------------------------------------------------------------------


D#-------------15----14----------------15----14-------------------------
A#----15----------------------15----------------------------------------
F#-------14-12----14----14-------14-12----14----14----------------------
C#-14----------------------14-------------------------------------------
G#----------------------------------------------------------------------
D#----------------------------------------------------------------------


D#-------------15----14----------------15----14-------------------------
A#----15----------------------15----------------------------------------
F#-12----14-12----14----14-12----14-12----14----14----------------------
C#----------------------------------------------------------------------
G#----------------------------------------------------------------------
D#----------------------------------------------------------------------


D#-12----------12----14----15----14----12-------------------------------
A#-------15----------------------------------15-------15----------------
F#----14----14----14----14----14----14----14-------14-------------------
C#----------------------------------------------12----------------------
G#----------------------------------------------------------------------
D#----------------------------------------------------------------------


Part 2

D#----10--------------------10------------------------------------------
A#---------13------------------13---------------------------------------
F#------------12------------------12------------------------------------
C#-10------------------------------------10.----------------------------
G#----------------------------------------------------------------------
D#----------------------------------------------------------------------


D#-------5---------------5---------------5------------------------------
A#-----8-----8---------8-----8---------7-----7---7----------------------
F#---7---------7-----7-----------7---7---------7------------------------
C#-5-------------5-------------5---0------------------------------------
G#----------------------------------------------------------------------
D#----------------------------------------------------------------------


D#-2-----2---------3-2-----3-2-0-----------------0----------------------
A#-3---------3---3-------3-------3-------3-----------3-----3------------
F#-2-----------2-----------------------0---------------0-----0---0------
C#-0---0---------------0-------------2-------2-----------2-----2--------
G#---------------------------------3-----------3------------------------
D#----------------------------------------------------------------------