20140817

CANON IN D FINGERSTYLE CLASSICAL GUITAR TAB


Pachelbel "Canon in D" fingerstyle classical guitar cover played by Michael Lucarelli
It's arranged in standard tuning and no Capo is used
Download the TAB under the video



CANON IN D FINGERSTYLE TAB

GP5 + GP6 + PDF >>

Part 1

e---10-----------10---9------------9---7-----------7---5-------2---5----
B------------7----------------10---------------7-----------2------------
G--------7----------------9----------------7----------------------------
D---0--------------------------------------------------4----------------
A---------------------0-------------------------------------------------
E--------------------------------------7--------------------------------


e---3-----------3---2-----------2---3-----------------------------------
B-----------0---------------3---------------0---3---2-----------2-------
G-------0---------------2---------------0-------------------2-----------
D-------------------0-----------------------------------2---------------
A---------------------------------------------------0-------------------
E---3-------------------------------3-----------------------------------


e---2-----------2---0-----------0---------------------------------------
B-----------3---------------2-------3-----------3---2-----------2-------
G-------2---------------2-------------------4---------------2-----------
D---0-----------------------------------4---------------4---------------
A-------------------0---------------2-----------------------------------
E---------------------------------------------------2-------------------



e-----------------------------------------------------------------------
B---0-----------0-------------------0-----------0---2-----------2-------
G-----------0-------2-----------2-----------0---------------2-----------
D-------0---------------0---4-----------0---------------2---------------
A---------------------------------------------------0-------------------
E---3---------------2---------------3-----------------------------------


e---2-----------------------0---2---------------------------5---7-------
B---3---2---3---------------------------3---2---0-------7---------------
G---2-------------------2-----------------------------------------------
D---0-----------0-----------------------------------4-------------------
A-------------------4---------------2-----------------------------------
E-----------------------------------------------------------------------