20140818

SHADOWY MEN ON A SHADOWY PLANET EGYPT TEXAS TAB



Shadowy Men On A Shadowy Planet - Egypt Texas guitar instrumental song
Download the TAB under the video



SHADOWY MEN ON A SHADOWY PLANET EGYPT TEXAS TAB


Part 1

e-----------------------------------------------------------------------
B-----------------------------------------------------------------------
G-----------------------------------------------------------------------
D-----------------------------------------------------------------------
A-0---2h3-3---3---3-2~--------------0-3-2---3---3/5.---0-3-2------------
E--------------------------------------------------------------3--------


e-----------------------------------------------------------------------
B-----------------------------------------------------------------------
G-----------------------------------------------------------------------
D-----2-2-2-2-2-2-2-1~--------------0-----------0-0-2-2-3-3-2-2---------
A-0---3-3-3-3-3-3-3-2~----------------3-2---3---------------------------
E-----------------------------------------------------------------------


e------------------------------------------5---5-5-4-5-4----------------
B----------5---5-5-4-5-4~------4-4-----6-----------------6-5-6-5--------
G------5---------------------------7-7---7-----------------------5------
D-/7-----7--------------------------------------------------------------
A-----------------------------------------------------------------------
E-----------------------------------------------------------------------



e-----------------------------------------------------------------------
B-----------------------------------------------------------------------
G-----5---5---5-7-------------------------5---7-5-7(9)---7(9)---7-5-----
D-7-7---7-------------5---5---7-5-7---7-7---------------------------7-5-
A-----------------7-7---7-----------------------------------------------
E-----------------------------------------------------------------------


e-----------------------------------------------------------------------
B-----------------------------------------------------------------------
G-----------------------------------------------------------------------
D-----------------------------------------------------------------------
A-0---3---3---3---3-2~----------------3-2---3---5---3---2---------------
E-----------------------------------------------------------3-----------


e-----------------------------------------------------------------------
B-----------------------------------------------------------------------
G-----------------------------------------------------------------------
D-----2-2-2-2-2-2-2-1~--------------0-----------0-0-2-2-3-3-2-2---------
A-0---3-3-3-3-3-3-3-2~----------------3-2---3---------------------------
E-----------------------------------------------------------------------


e-------------------------------------------5---5-5-4-5-4---------------
B----------5---5-5-4-5-4~---4---4-4-----6-----------------6-5-6-5-------
G------5----------------------------7-7---7-----------------------5-----
D-/7-----7--------------------------------------------------------------
A-----------------------------------------------------------------------
E-----------------------------------------------------------------------


e-----------------------------------------------------------------------
B-----------------------------------------------------------------------
G-----5---5---5-7-------------------------5---7-5-7(9)---7(9)---7-5-----
D-7-7---7-------------5---5---7-5-7---7-7---------------------------7-5-
A-----------------7-----7-----------------------------------------------
E-----------------------------------------------------------------------


e-----------------------------------------------------------------------
B-----------------------------------------------------------------------
G-----------------2-----------------------2-----------------------------
D-----2-------0-3-------------2-------0-3-------------------------------
A-0-3-------2-----------2-0-3-------2-----------2-----------------------
E-------0-3---------0-3---------0-3---------0-3-------------------------