20140921

HIER FOLGT EIN WELSCHER TANZ CLASSICAL GUITAR TAB


Hans Neusiedler - Hier Folgt Ein Welscher Tanz on guitar by Michael Lucarelli
It's played in standard tuning with Capo on the 1st fret
Download the TAB undet the video



MICHAEL LUCARELLI HIE FOLGET EIN WELSHER TANTZ TAB


Part 1

e-1-0-1-3-1-0-3-1-0-------0-3-1-0-1-0---------------------0---0---------
B-------------------------------------3-1---3-2-0-2-0-2-3-2---2---------
G-2-------2-------0---0-2-0-------2-------2-------2---------------------
D-0-------0---------4-------------0-------------------------------------
A-----------------3-------3---------------0-------0-------0-------------
E-----------------------------------------------------------------------


e-1-0-1-3-1-0-3-1-0-------0-3-1-0-1---0---------------------------------
B---------------------------------------3-2---3-2-3---3-2-3---3---------
G-2-------2-------0---0-2-0-------2-------2-------2-2-----2---2---------
D-0-------0---------4-------------0---------------0-------0-------------
A-----------------3-------3---------------0-----------------------------
E-----------------------------------------------------------------------


e-1-0-1-3-1-0-3-1-0-------0-3-1-0-1-0---------------------0---0---------
B-------------------------------------3-1---3-2-0-2-0-2-3-2---2---------
G-2-------2-------0---0-2-0-------2-------2-------2---------------------
D-0-------0---------4-------------0-------------------------------------
A-----------------3-------3---------------0-------0-------0-------------
E-----------------------------------------------------------------------



e-1-0-1-3-1-0-3-1-0-------0-3-1-0-1---0---------------------------------
B---------------------------------------3-2---3-2-3---3-2-3---3---------
G-2-------2-------0---0-2-0-------2-------2-------2-2-----2---2---------
D-0-------0---------4-------------0---------------0-------0-------------
A-----------------3-------3---------------0-----------------------------
E-----------------------------------------------------------------------


Part 2

e-5---5---5---3-1-0-------0-3-1-0-1-0-------0-1-3-5---5---5---5---------
B-3---3---3---------------------------3-1-3-------3---3---3---3---------
G-----------------0---0-2-0-------2-----------------------0-------------
D-0-------0---------4-------------0---------------0-------0-------------
A-----------------3-------3---------------0-----------------------------
E-----------------------------------------------------------------------


e-1-0-1-3-1-0-3-1-0-------0-3-1-0-1---0---------------------------------
B---------------------------------------3-2---3-2-3---3-2-3---3---------
G-2-------2-------0---0-2-0-------2-------2-------2-2-----2---2---------
D-0-------0---------4-------------0---------------0-------0-------------
A-----------------3-------3---------------0-----------------------------
E-----------------------------------------------------------------------


e-5---5---5---3-1-0-------0-3-1-0-1-0-------0-1-3-5---5---5---5---------
B-3---3---3---------------------------3-1-3-------3---3---3---3---------
G-----------------0---0-2-0-------2-----------------------0-------------
D-0-------0---------4-------------0---------------0-------0-------------
A-----------------3-------3---------------0-----------------------------
E-----------------------------------------------------------------------


e-1-0-1-3-1-0-3-1-0-------0-3-1-0-1---0---------------------------------
B---------------------------------------3-2---3-2-3---3-2-3---3---------
G-2-------2-------0---0-2-0-------2-------2-------2-2-----2---2---------
D-0-------0---------4-------------0---------------0-------0-------------
A-----------------3-------3---------------0-----------------------------
E-----------------------------------------------------------------------