20140929

NAGAOKA RYOSUKE PETROLZ TAB (ACOUSTIC GUITAR TAB)


Nagaoka Ryosuke (Petrolz) from Sleepers film with a single acoustic guitar
It is played in half-step down tuning and no capo is used
Download the TAB under the video




There is a great (however not note-for-note) guitar cover that can help you


NAGAOKA RYOSUKE PETROLZ TAB

GP5 + GP6 + PDF >>

Part 1

D#-----------4-----4-----4---4-----5-----5-------5---------5------------
A#-5-------x-5---x-5-----5-x-5---x-5-----5-x-x-x-5h7-5-----5---x-x------
F#-6-------x-6---x-6-----6-x-6---x-6-----6-x-x-x-------6---6---x-x------
C#-6-------x-6---x-6-----6-x-6---x-7-----7-x-x-x---------7-7---x-x------
G#-x-------x-----x-x-------x-----x-x-----x-x-x-x-----------x---x-x------
D#-5-----------x---5-----------x---7-----7-----------------7------------


D#-------4-------4-----------------------------------4---4---4----------
A#-4-----4-x-x-x-4-x-----------4-x-4-----4-x-x-x-5-x-4h5-4---4-----x----
F#-4-----4-x-x-x-4-x-----------4-x-4-----4-x-x-x-4-x-------6---6-4-x----
C#-4-----4-x-x-x-4-x-----4-----4-x-x-----x-x-x-x-x-x---------------x----
G#-x-------x-x-x---x-4h6---6-6---x-4-----4-x-x-x-4-x--------------------
D#-4--------------------------------------------------------------------


D#-4-----4-------4---4-4---5-7-5-x-5-----5-----5------------------------
A#-5-----5-x-x-x-5-x-5-5-x-5-5-5-x-5-----5-x-x-5h7-5---5---5---x-x------
F#-6-----6-x-x-x-6-x-6-6-x---------6-----6-x-x-----4h6-4---4---x-x------
C#-6-----6-x-x-x-6-x-6-6-x---------7-----7-x-x-----------7---7-x-x------
G#-x-----x-x-x-x-x-x-x-x-x---------x-----x-x-x-----------------x-x------
D#-5-----5-------5---5-5-----------7-----7------------------------------



D#-4-----4---------x-2-x-x-2-4-2-x--------------------------------------
A#-4-----4-x-x-2-4-x-2-x-x-2-4-2-x-4-----4-x-x-x-5---5-5-5-5-5-x-x------
F#-4-----4-x-x-2-4-x-------------x-4-----4-x-x-x-4---4-4-4-4-4-x-x------
C#-4-----4-x-x---------------------x-----x-x-x-x-2---2-2-2-2-2-x-x------
G#-x-----x-x-x---------------------4-----4-x-x-x-4---4-4-4-4-4-x-x------
D#-4-----4--------------------------------------------------------------



Part 2 - Chorus

D#-4---4-4---------------4-4-------5-----5---------5---5-5-5------------
A#-5---5-5-x-x-x-x-x-x-x-5-5---x-x-5-----5-x-x-x-x-5---5-5-5---x-x------
F#-6---6-6-x-x-x-x-x-x-x-6-6---x-x-6-----6-x-x-x-x-6---6-6-6---x-x------
C#-6---6-6-x-x-x-x-x-x-x-6-6---x-x-7-----7-x-x-x-x-7---7-7-7---x-x------
G#-x---x-x-x-x-x-x-x-x-x-x-x---x-x-x-----x-x-x-x-x-x---x-x-x---x-x------
D#-5---5-5---------------5-5-------7-----7---------7---7-7-7------------


D#-4---4-4-----------4-4-4-4-4------------------------------------------
A#-4---4-4-x-x-x-x-x-4-4-4-4-4-x-x-4---4-4-x-x-x-x-x-5-5-5-5-5-x-x------
F#-4---4-4-x-x-x-x-x-4-4-4-4-4-x-x-4---4-4-x-x-x-x-x-4-4-4-4-4-x-x------
C#-4---4-4-x-x-x-x-x-4-4-4-4-4-x-x-x---x-x-x-x-x-x-x-2-2-2-2-2-x-x------
G#-x---x-x-x-x-x-x-x-x-x-x-x-x-x-x-4---4-4-x-x-x-x-x-4-4-4-4-4-x-x------
D#-4---4-4-----------4-4-4-4-4------------------------------------------


D#-4-----4-----------4-4-4-4-4-----5-----------------------5------------
A#-5-----5-x-x-x-x-x-5-5-5-5-5-x-x-5-------x-x-x-x-x-x-x-x-5---x-x------
F#-6-----6-x-x-x-x-x-6-6-6-6-6-x-x-6-------x-x-x-x-x-x-x-x-6---x-x------
C#-6-----6-x-x-x-x-x-6-6-6-6-6-x-x-7-------x-x-x-x-x-x-x-x-7---x-x------
G#-x-----x-x-x-x-x-x-x-x-x-x-x-x-x-x-------x-x-x-x-x-x-x-x-x---x-x------
D#-5-----5-----------5-5-5-5-5-----7-----------------------7------------


D#-4---4-4-----------4-4-4-4--------------------------------------------
A#-4---4-4-x-x-x-x-x-4-4-4-4-x-x-x-4---4-4-x-x-x-x-4---4-4-4-x-x-x------
F#-4---4-4-x-x-x-x-x-4-4-4-4-x-x-x-4---4-4-x-x-x-x-4---4-4-4-x-x-x------
C#-4---4-4-x-x-x-x-x-4-4-4-4-x-x-x-x---x-x-x-x-x-x-x---x-x-x-x-x-x------
G#-x---x-x-x-x-x-x-x-x-x-x-x-x-x-x-4---4-4-x-x-x-x-4---4-4-4-x-x-x------
D#-4---4-4-----------4-4-4-4--------------------------------------------



Part 3

D#-7-----7-7---7-7---7-7-7-x-9-x-0-4---4-4-4---4-4-4-4-4-4-x-7-x-0------
A#-5-----5-5---5-5---5-5-5-x---x---x---x-x-x---x-----------x---x--------
F#-6-----6-6---6-6---6-6-6-x---x---x---x-x-x---x-----------x---x--------
C#-7-----7-7---7-7---7-7-7-x---x---2---2-2-2---2-----------x---x--------
G#-0-----0-0---0-0---0-0-0-x---x---2---2-2-2---2------------------------
D#---------------------------------0---0-0-0---0------------------------


D#-2---2-2-2-x-2-2-x-2-2-2-x-4-x-x--------------------------------------
A#-4---4-4-4-x-4-4-x-4-4-4-x-4-x-x-4---4-4-x-4-x-4-x-4-4-4-4-4-x-x------
F#-4---4-4-4-x-4-4-x-4-4-4-x-4-x-x-4---4-4-x-4-x-4-x-4-4-4-4-4-x-x------
C#-x---x-x-x-x-x-x-x-x-x-x-x---x-x-x---x-x-x-x-x-x-x-x-x-x-x-x-x-x------
G#-x---x-x-x-x-x-x-x-x-x-x-x-------4---4-4-x-4-x-4-x-4-4-4-4-4-x-x------
D#-4---4-4-4-x-4-4-x-4-4-4-x--------------------------------------------


D#-7---7-7-7-----7---7---7-7-7-7---5---5-5-5-5-5-5---5-----5-5----------
A#-5---5-5-5-x-x-5-x-5-x-5-5-5-5-x-5---5-5-5-5-5-5h7-5-----5-5-x-x------
F#-6---6-6-6-x-x-6-x-6-x-6-6-6-6-x-6---6-6-6-6-6-------6---6-6-x-x------
C#-7---7-7-7-x-x-7-x-7-x-7-7-7-7-x-7---7-7-7-7-7---------7-7-7-x-x------
G#-0---0-0-0-x-x-0-x-0-x-0-0-0-0-x-x---x-x-x-x-x-----------x-x-x-x------
D#---------------------------------7---7-7-7-7-7-----------7-7----------


D#-4---4-4---2-4-2-x-x-2-4-2--------------------------------------------
A#-4---4-4-x-2-4-2-x-x-2-4-2-4-2-x-4-----4-x-x-x-5---5-5-5-5-5-5-x------
F#-4---4-4-x-----------------4-2-x-4-----4-x-x-x-4---4-4-4-4-4-4-x------
C#-4---4-4-x---------------------x-x-----x-x-x-x-2---2-2-2-2-2-2-x------
G#-x---x-x-x---------------------x-4-----4-x-x-x-4---4-4-4-4-4-4-x------
D#-4---4-4--------------------------------------------------------------






DOWNLOAD THIS TAB IN GUITAR PRO



  • click 'Free Download'
  • add your e-mail address
  • you will get an e-mail with your download links (in a few seconds)
  • download the Guitar Pro 6 tab + GP5 + PDF for free
  • and that's all ...


Guitar Pro: a complete workshop for guitarists at an affordable price