20141005

KENNY CHESNEY ANYTHING BUT MINE SOLO TAB (GUITAR SOLO TAB)

Kenny Chesney - Anything But Mine guitar solo starts about 3:16 in the official version
Awesome electric guitar solo played with a Gibson SG
Download the TAB under the video



ANYTHING BUT MINE SOLO TAB

GP5 + GP6 + PDF >>

e--------------------12------------------------9------------------------
B-12(14)----------------(14)---(12)p9------------12-9-------------------
G-------------------------------------11(13)----------(13)(11)p9~-----\-
D-----------------------------------------------------------------------
A-----------------------------------------------------------------------
E-----------------------------------------------------------------------


e-----------------------------------------------------------------------
B-----------------12h14p12----------------12----------------------------
G------9h11-11/13----------13\11p9-11(13)----(13)(11)~------------------
D-9h11------------------------------------------------------------------
A-----------------------------------------------------------------------
E-----------------------------------------------------------------------


e-----------------12-----------12-----------12-----------12-----------12
B--------------12-----------12-----------12-----------12-----------12---
G-/14-14(16)---------14(16)-------14(16)-------14(16)-------14(16)------
D-----------------------------------------------------------------------
A-----------------------------------------------------------------------
E-----------------------------------------------------------------------



e-----------12--------------------------------------17-19---------------
B--------12----15(17)~-----------------17-19-(21)---------(21)(19)p17---
G-14(16)-------------------------16/18----------------------------------
D-----------------------------------------------------------------------
A-----------------------------------------------------------------------
E-----------------------------------------------------------------------


e--------------19--------------------------19---------------------------
B-19(21)~---------(21)(19)p17-17h19-(21)------(21)(19)--p17~~~----------
G-----------------------------------------------------------------------
D-----------------------------------------------------------------------
A-----------------------------------------------------------------------
E-----------------------------------------------------------------------



DOWNLOAD THIS SOLO TAB IN GUITAR PRO



  • click 'Free Download'
  • add your e-mail address
  • you will get an e-mail with your download links (in a few seconds)
  • download the Guitar Pro 6 tab + GP5 + PDF for free
  • and that's all ...


Guitar Pro: a complete workshop for guitarists at an affordable price