20141005

MY HEART WILL GO ON INSTRUMENTAL GUITAR TAB (IOXSILAN)


Celine Dion - My Heart Will Go On instrumental guitar cover by Ioxsilan
Easy guitar instrumental with backing track
Download the TAB under the video



IOXSILAN MY HEART WILL GO ON TAB


Part 1

e--------<12>--------------------------<7>------------------------------
B-<12>---------------------------------------<7>------------------------
G-----------------------------------------------------------------------
D-----------------------------------------------------------------------
A-----------------------------------------------------------------------
E-----------------------------------------------------------------------


e-----------------------------------------------------------------------
B-5-------------4-/-5----------5---------7-h-9-----(10)(9)p7------------
G-----------------------------------------------------------------------
D-----------------------------------------------------------------------
A-----------------------------------------------------------------------
E-----------------------------------------------------------------------


e-----------------------------------------------------------------------
B-5-------------4-(5)-(4)-----------------------------------------------
G------------------------------4-/-6------------------------------------
D-----------------------------------------------------------------------
A-----------------------------------------------------------------------
E-----------------------------------------------------------------------



e-----------------------------------------------------------------------
B-5-------------4-/-5----------5---------7-h-9-----(10)(9)p7------------
G-----------------------------------------------------------------------
D-----------------------------------------------------------------------
A-----------------------------------------------------------------------
E-----------------------------------------------------------------------


e-----------------------------------------------------------------------
B-5-------------4-(5)-(4)-----------------------------------------------
G------------------------------4-/-6------------------------------------
D-----------------------------------------------------------------------
A-----------------------------------------------------------------------
E-----------------------------------------------------------------------


e-----------------------------------------------------------------------
B-----5--------------7-------------12-------10-9(10)(9)\7---------------
G-2/4-------------------------------------------------------------------
D-----------------------------------------------------------------------
A-----------------------------------------------------------------------
E-----------------------------------------------------------------------


e-----------------------------------------------------------------------
B-9-(10)-(9)--------p7--------------------------------------------------
G------------------------9---8-(9)(8)------------4-/-6------------------
D-----------------------------------------------------------------------
A-----------------------------------------------------------------------
E-----------------------------------------------------------------------


e-----------------------------------------------------------------------
B-----5--------------7-------------12-------10-9(10)(9)-\-7-------------
G-2/4-------------------------------------------------------------------
D-----------------------------------------------------------------------
A-----------------------------------------------------------------------
E-----------------------------------------------------------------------


e-----------------------------------------------------------------------
B-9-9(10)-(9)--------p7-------------------------------------------------
G-------------------------9---8-(9)(8)------------4-/-6-----------------
D-----------------------------------------------------------------------
A-----------------------------------------------------------------------
E-----------------------------------------------------------------------


e-----------------------------------------------------------------------
B-----------------------------------------------------------------------
G-4-/-6-\-4-----------------------4-------------------------------------
D---------------6-/-7-\-6-p-4-h-6---------------------------------------
A-----------------------------------------------------------------------
E-----------------------------------------------------------------------