20141002

SOMEWHERE OVER THE RAINBOW UKULELE TAB (FINGERSTYLE)


Somewhere Over The Rainbow fingerstyle ukulele cover played by Goran Pauk
It's in 2 step-down tuning from the low G standard. (That is D#G#CF)
Download the TAB under the video



SOMEWHERE OVER THE RAINBOW FINGERSTYLE UKULELE TAB

GP5 + GP6 + PDF >>

Main Part

F---0---------------8---------------7-----3--5------7-----8-------
C------1-----1---------5-----5---------0--5--5---------0-----5----
G#--------0---------------5---------0-----5--5------0-------------
D#--2---------------5-------------------------------------5-------


F---1---------------5---------------3---------------3-------------
C------1-----1---------6-----6---------5-----5---------5-----5----
G#--------2---------------5---------5-----5---------5-----5-------
D#--3---------------7---------------------------------------------


F---1---------------1---------------0---------------0-----1-------
C------3-----3---------3-----3------------1--3--------------------
G#--------2---------------2------------0---------------0-----0----
D#--0---------------0---------------2---------------2-------------



F-------------------------0---------------0---------------0-------
C---3-----0--1------3---------------1--------1------1--------1----
G#-----2---------------2-----2---------0---------------0----------
D#--0---------------0---------------2---------------2-------------


F---0---------------8---------------7-----3--5------7-----8-------
C------1-----1---------5-----5---------0--5--5---------0-----5----
G#--------0---------------5---------0-----5--5------0-------------
D#--2---------------5-------------------------------------5-------


F---1---------------5---------------3---------------3-------------
C------1-----1---------6-----6---------5-----5---------5-----5----
G#--------2---------------5---------5-----5---------5-----5-------
D#--3---------------7---------------------------------------------


F---1---------------1---------------0---------------0-----1-------
C------3-----3---------3-----3------------1--3--------------------
G#--------2---------------2------------0---------------0-----0----
D#--0---------------0---------------2---------------2-------------


F-------------------------0---------------0---------------0-------
C---3-----0--1------3---------------1--------1------1--------1----
G#-----2---------------2-----2---------0---------------0----------
D#--0---------------0---------------2---------------2-------------