20141010

KIMINO SHIRANAI MONOGATARI FINGERSTYLE GUITAR TAB


Supercell - Kimino Shiranai Monogatari fingerstyle guitar cover by The Fireblitz
It's arranged in standard tuning and no Capo is used
Download the TAB under the video



KIMINO SHIRANAI MONOGATARI FINGERSTYLE TAB

GP5 + GP6 + PDF >>

Part 1

e---0-0-0-0---0-0-0-0-0-------------0-0-0-0-0---0-0---------------------
B---2-------------------3-2---0-----0-------0-------5-5-3-2-------------
G---2-----------------------------2-1-------1-----------------4---------
D---2---------------0---------------------------------------------------
A---0-------------------------------------------------------------------
E-----------------------------------0---------------2-------2---0-------


e-----------------------------------0-------4-------5---4---5---7-------
B-----------2-------0-------3-------0---------------7-------------------
G---2-------------------2-----------1---1-----------7-------------------
D-------2-----------0-----------0---------------------------------------
A---0-----------0-------------------------------------------------------
E-----------------------------------0-----------0---0---------0---------


Part 2

e---5-------0---------------0-----------------------------------5-------
B---3-----------3---2-----------3---2-------5---3---2---3---5-----------
G---2---2-----2---2-----1-----1---1-----2-----------------2-------------
D---0-----0-------------------------------------------------------------
A---------------------------------------------------0---------0---------
E-------------------0-----0---------2-----2---2---2---------------------



e-----------0-----------------------------------------------------------
B---2-----------3---2-------2-------------0-----0-2---0-2-3-------------
G-------2-----2---2-----1-------1.--2-1-2-----2---------------2---------
D---0-----0-----------------------------------------------0-------------
A-----------------------------------------2-----------------------------
E-------------------0-----0-1-------2-------------0---------------------


e-----------------------------------------------------------------------
B-------------2-----3-----2---0-----2-----2-----3-2---2-2-2-2-2-2.------
G---2-----2-----2---------2---2---2-2---2-----2-------2-2-2-2-2-2.------
D-------2---------2-----------------------------------------------------
A---0-------0-------0---0---0---0---0-------0-------0-------------------
E-----------------------------------------------------------------------


Part 3

e---0-0-0-0-0-0-0-0-0---------------------------------------------------
B---2-------2-----------3-2---0-----2-2-2-2-2-2-3-2---2h3-2---0---------
G---2-------2---------------------2---------2---------------------------
D-----------------------------------0-------0---------------------------
A---0-----------------------------------------------0-------------------
E-------------------0-------0-------------------------------0-----------


e-----------5-------4-------5-------5---------4-2-0-------0-------------
B-------------------2---------------3-----3-------------0-----0---------
G---2---------------4---4-----------2---2-------------1-----------1-----
D-----------------------------------0-------0---------------------------
A-------------------2-----------0---------------------------------------
E---2---2-------2-----------------------------------0-------------------