20141225

SNOW SORA NO YURIKAGO FINGERSTYLE GUITAR TAB


Snow - Sora No Yurikago acoustic fingerstyle guitar cover played by Animelodies1
It's arranged in Dropped D tuning with Capo on the 2nd fret
Download the TAB under the video



SORA NO YURIKAGO FINGERSTYLE TAB


Part 1

e-----12---10---10---9~----------------9---7--------9~------------------
B---------------10-----------------------------10-----------------------
G-9-------------------------------------------------8~------------------
D-----------------------------------------------------------------------
A-----------------------------------------------------------------------
D-----------------------------------------------------------------------


e-----9---10-------7---5~------------------5---7---9---0----------------
B-6------------9---7-------------------7---------------8~---------------
G---------6-------------------------------------------------------------
D-----------------------------------------------------------------------
A-----------------------------------------------------------------------
D-----------------------------------------------------------------------


e---------5----------------------------------------------12-------------
B-----8-------8---7~----------------7---9-----10----12------------------
G-6---------------7~--------------------9-------------------------------
D-7------------------------------------------------------11-------------
A-----------------------------------------------------------------------
D-----------------------------------------------------------------------




e--------------------9-------9------------------------------------------
B-10-------10---12---------------12------------10---<12>----------------
G-11--------------------------------------11----------------------------
D--------------------9--------------------------------------------------
A-----------------------------------------------------------------------
D-----------------------------------------------------------------------


e-------------------------0---------------------------------------------
B-----------------------------3-----------------------------------------
G-------------2---1-----------------------------------------------------
D---------2-----------2-------------------------------------------------
A-----2-----------------------------------------------------------------
D-2---------------------------------------------------------------------


Part 2

e-----------------4-----------------------------------------------------
B-3---2-------2-------2---------------------------6---------------------
G---------4---------------4---2---6-----------6-------6---7-------------
D-----------------------------------------9-------------------6---------
A-0-----------------------------------6-----------4---------------------
D---------------------------------6-------------------------------------


e-----------------4-------------------------------0---------------------
B-------------5---------------------------0---2-------------------------
G-4-------6---------------4---6---0-------------------0---2---0---------
D-----7---------------7---------------0---------------------------------
A-------------------------------------------------0---------------------
D-4-------------------------------2-------------------------------------


e---------------------------------0---------------0---------------------
B---------------------------------------------0---------------0---------
G-----------------------------4-----------1---------------2-------------
D-4-----------4---6-----7-------------2---------------4-----------------
A-----0---5-----------------------4-------------------------------------
D-0-----------------------------------------------4---------------------


e-----------------1-------------------------------0-----------0---------
B-2-------3---0-------------------------------2-----------2-------------
G-------------------------2---2-----------2-----------2-----------------
D-----0---------------0---------------2---------------------------------
A-2-------------------------------0-------------------------------------
D-----------------2-----------------------------------------------------