20150120

IGOR PRESNYAKOV THE GODFATHER THEME TAB (ACOUSTIC FINGERSTYLE GUITAR TAB)

The Godfather theme acoustic fingerstyle guitar cover played by Igor Presnyakov
It's in half-step down tuning and no Capo is used
Download the TAB under the video



THE GODFATHER THEME FINGERSTYLE TAB

GP5 + GP6 + PDF >> 

Part 1

eb----------------------3---0---2---0-----------------------0-----<12>--
Bb-0-/5-5/8-8\7-7p5-5-----------1---1---1---1/3---0-------0---0---<12>--
Gb------------------------------2---2---2---2/4---0-----0-------0-<12>--
Db----------------------------------------------------2-----------------
Ab----------------------------------------------------------------------
Eb--------------0---------------0-----------------0---------------<12>--


eb------------------------3-0---2p0-0---------------------0---------0---
Bb-0-/5-5/8-8\7-7p5-5-----------------------------------1---1------1----
Gb--------------------------------------0-4-3---------2-------2---2-----
Db--------------------------------------------------2------------2------
Ab----------------------------------------2-1---0---------------0-------
Eb--------------0---------------3---------------------------------------


eb-----------------------0-----0---------------0-------0----------------
Bb-------------7-------7---7---7---------------------0---0-----1--------
Gb-2/5-5/8-8.--------5-------5-5---2/5-5/8-8-------0---------0----------
Db-----------------7---------------------------------------0------------
Ab-------------0---------------0-------------------------------3--------
Eb---------------------------------------------0------------------------



eb----------------------------------------------------------0---<12>----
Bb---------3--3p1~--0---3~--1---1p0-0---0-----------------0---0-<12>----
Gb-----0------------------------------------------------0-------<12>----
Db-2----------------------------------------1/2-2-----2-----------------
Ab------------0-----------------2-------------------2-------------------
Eb----------------------------------------------0-----------------------
 




DOWNLOAD THIS TAB IN GUITAR PRO



  • click 'Free Download'
  • add your e-mail address
  • you will get an e-mail with your download links (in a few seconds)
  • download the Guitar Pro 6 tab + GP5 + PDF for free
  • and that's all ...


Guitar Pro: a complete workshop for guitarists at an affordable price