20150101

SCARBOROUGH FAIR FINGERSTYLE GUITAR TAB


Scarborough Fair fingerstyle guitar cover played by Hansel Pethig
It's in standard tuning with Capo on the 4th fret
Download the TAB under the video



SCARBOROUGH FAIR FINGERSTYLE TAB

GP5 + GP6 + PDF >>

Part 1

e-----8---7---7---5\3-3-------5---3---3\1-1---0-------------------------
B---5---5-----------------------0---------------------------------------
G-----------7---7---5---5---5-------4---2---2---2-----------------------
D-----------------------------------------------------------------------
A-0-----------0-----------0-----------0---------------------------------
E-----------------------------------------------------------------------


e-----------------------------------------------------------------------
B-------0-----------0-------1-0-1-0-----1-0-1-0-------------------------
G-----2---2-------2---2-----2-0-2-0-----2-0-2-0-------------------------
D---0-------0---0-------0-3---------0-----------------------------------
A-----------------------------------------------------------------------
E-1-----------3-----------------------3---------------------------------


Part 2

e-------------0---------------------------0-----------------------------
B---------0-----------0---0-----0h1p0-----------3-----------------------
G-------5---5-------5---0-------------0-------0---0---------------------
D-----7-----------7-----------0-------------4---------------------------
A-0-----------0-------------------------0-------------------------------
E-------------------------3---------------------------------------------



e---0-------------0---3/5-5-------3---0---2-----------------------------
B---------0---------------------0-------------3-------------------------
G-------2-------0---0---0-----5-----0---0---2---2-----------------------
D-----2-----------------------------------0-----------------------------
A-0---------2-3-----------0-----------3---------------------------------
E-----------------------------------------------------------------------


e---0-----------0-----------0-----------0-------------------------------
B---------3-----------0-----------3-----------0-------------------------
G-------0---0-------2---2-------0---0-------2---0-----------------------
D-----4-----------2-----------4-----------2-----------------------------
A-0-----------0-----------0-----------0---------------------------------
E-----------------------------------------------------------------------


e-5-------5---3-------0---0---------------------------------------------
B-5-----5-----1-----1---------3---1---0-------0h1-0---------------------
G-5---5-----0-0---0-----0---0---0---0-----0-----------------------------
D---------------------------------------------0h2-0---------------------
A-0-----------3-----------3---2---0-------------------------------------
E-------------------------------------3---------------------------------


e---------------------0-------------------------------------------------
B-1---0-------------------3-------1---0---------------------------------
G---------0---2-----2---0-------0---0-----2---0-------------------------
D-2---0-----------2-----------0---------0---0---0-----------------------
A-------------0---------------------------------------------------------
E-------------------------3-----------3---------------------------------


e---0-----------0-----------0-----------0-------------------------------
B---------3-----------0-----------3-----------0-------------------------
G-------0---0-------2---2-------0---0-------2---2-----------------------
D-----4-----------2-----------4-----------2-----------------------------
A-0-----------0-----------0-----------0---------------------------------
E-----------------------------------------------------------------------





DOWNLOAD THIS TAB IN GUITAR PRO



  • click 'Free Download'
  • add your e-mail address
  • you will get an e-mail with your download links (in a few seconds)
  • download the Guitar Pro 6 tab + GP5 + PDF for free
  • and that's all ...