20150111

THE RYDERS SECRET LOVE TAB (GUITAR INSTRUMENTAL)


The Ryders play Secret Love live in Tilburg (2010)
Nice guitar instrumental played by Kurt Fröberg guitarist
Download the TAB under the video



THE RYDERS SECRET LOVE TAB


Part 1

  A
e-----------------------------------------------------------------------
B-----------------------------------------------------------------------
G-----------------------------------------------------------------------
D-----2-2-----2-2-----2-2-----2-2-----2-2-----2-2-----2-2---------------
A-0---------------0---------------0---------------0---------------------
E---------0---------------0---------------0---------------0-------------
  x   x x x   x x x   x x x   x x x   x x x   x x x   x x x

  A
e-----------------------------------------------------------------------
B-----------------------------------------------------------------------
G-----------------------------------------------------------------------
D-1h2---1/2-----------0h2p0---------------------------------------------
A---------------------------4---0---2---4-------------------------------
E-------------------------------------------0---------------------------

  A                                   Bm     E
e-----------------------------------------------------------------------
B-----------------------------------------------------------------------
G-----------------------------------------------------------------------
D-------------------------0---2---4-------------------------------------
A-----0-----------2---4---------------2---------------------------------
E-0---------------------------------------------------------------------


  E
e-----------------------------------------------------------------------
B-----------------------------------------------------------------------
G-----------------------------------------------------------------------
D-----------------------------------------------------------------------
A-5---5-----------4---2-------0---2-------------------------------------
E-------------------------4-----------0---------------------------------

  E                                   A
e-----------------------------------------------------------------------
B-----------------------------------------------------------------------
G-----------------------------------------------------------------------
D-----------------------------------------------------------------------
A-----------------0---2---4---0-------0---------------------------------
E-0---4---------------------------2-------------------------------------

  A
e-----------------------------------------------------------------------
B-5---5-----------3h5p3-2-----------2-----------------------------------
G---------------------------2---4---------------------------------------
D---------------------------------------2-------------------------------
A-----------------------------------------------------------------------
E-----------------------------------------------------------------------

  A                                     Bm    E    
e-------------------------------0---2-----------------------------------
B-------------------0---2---3-----------0-------------------------------
G-------2---------------------------------------------------------------
D-1/2-------------------------------------------------------------------
A-----------------------------------------------------------------------
E-----------------------------------------------------------------------

  E
e-1/2---2---------------------------------------------------------------
B-2/3---3-----------2h3p2-0---------------------------------------------
G-----------------------------1---2---4---------------------------------
D-----------------------------------------2-----------------------------
A-----------------------------------------------------------------------
E-----------------------------------------------------------------------

  E                                   A
e-----------------------------------------------------------------------
B-------------------------2---------------------------------------------
G-----1-----------2---4-------2-------2---------------------------------
D-2-------------------------------4-------------------------------------
A-----------------------------------------------------------------------
E-----------------------------------------------------------------------


Part 2

  F#m                   B               E
e-5-----5---------4h5p4-------------------------------------------------
B-7-----7---------------7---4---5---7---7/9-----------------------------
G-------------------------------------------------9---------------------
D---------------------------------------------9-----------9-------------
A-----------------------------------------------------------------------
E-----------------------------------------------------------------------

  Em                    A               D               Dm
e-7---7-------------------------------------------------5---------------
B-8---8-----------7h8p7-----------------7---------------6---------------
G-----------------------9---6---7---9-----------------------------------
D-----------------------------------------------7-----------------------
A-----------------------------------------------------------------------
E-----------------------------------------------------------------------