20150222

THE BOXER FINGERSTYLE GUITAR TAB


Paul Simon - The Boxer fingerstyle guitar cover played by Hansel Pethig
It's in standard tuning with Capo on the 2nd fret
Download the TAB under the video



THE BOXER FINGERSTYLE TAB

GP5 + GP6 + PDF >>

Part 1                     - CAPO on the 2nd -

e-----------------------------------------------------------------------
B-3p0---0-----0---------------------------------------------------------
G-----2---2-----2---0-----0-----0---------------------------------------
D-----------3-----3---3-----3-------------------------------------------
A-----------------------5-----5-----------------------------------------
E-----------------------------------------------------------------------


e-----------------------------------------------------------------------
B-----------0---------------0---------------0---------------0h1---------
G-------0-------0-------0-------0-------0---------------0---------------
D-----0-------0-------0-------0-------0-------0-------0-------0---------
A-----------------------------------------------------------------------
E-3-------3-------3-------3-------3-------3-------3-------3-------------


Part 2

e-----------0-----------------------------3---2---0-----0---2p0---------
B-3-----3-------3-----0-----0h1---3-------------------------------------
G-----------------------------------------------------------------------
D-----0-------0-------0-------0-------0-------0-------2-------2---------
A-----------------------------------------------------------------------
E-3-------3-------3-------3-------3-------2-------0-------0-------------



e-0-----------0---------------------------------------------------------
B-----3-----------3---------0--------------------------0----------------
G---------2-------------2----------------5---5-----5-------0---2.-------
D-----4-------4-------4-------0--------4-------4-------0----------------
A-5---------------5---------------/5---------------5--------------------
E---------5---------------5----------------5---------------0---2.-------


e-------------------------------------3---3---2---3---------3-----------
B-1--p0-----0-------0-------0---------------------------0---------------
G-------0-------0-------0-------0---------------------------------------
D-----0-------0-------0-------0-------0-------0-------2-------2---------
A-----------------------------------------------------------------------
E-3-------3-------3-------3-------3-------2-------0-------0-------------


e-3p2-------2-----2p0-------0-----0h2---0-------------------------------
B-------3-----------------------------------3-----3-----0-----1.--------
G-----2-----------------0-------0---------------------------------------
D-0-----------0-------2-------2-------2-------0-------0-------0---------
A---------0-------3---------------3-------------------------------------
E-------------------------3---------------3-------3-------3-------------

 etc ...