20150315

ROBERT JOHNSON 32 20 BLUES TAB (ACOUSTIC GUITAR TAB)


(Robert Johnson) 32 20 Blues acoustic guitar cover played by Koki Nitobe
It's in standard tuning and no Capo is used
Download the TAB under the video



ROBERT JOHNSON 32 20 BLUES TAB

GP5 + GP6 + PDF >>

e--/9-----------------------8---8-------7---7---------------------------
B--/8-----------------------7---7-------6---6---------------------------
G--/9-----------------------8---8-------7---7---------------------------
D-----------------------------------------------------------------------
A---0-----0-----0-----0-----0-----0-----0-----0-------------------------
E-----------------------------------------------------------------------

                    - all the bass notes palm muted -

e---5.----5.----5.----5.----5.------------------------------------------
B---5.----8.----7.----6.----5.------------------------------------------
G-------------------------------------7-----7---------------------------
D-------------------------------------6-----6---------------------------
A---0-----0-----0-----0-----0-----7-----7-----7-------------------------
E-----------------------------------------------------------------------


e--------/9-------------------------------------------------------------
B--------/8----------------------/8.----7---8.--------------------------
G--------/9----------------------/9.----8---9.--------------------------
D-----------------------------------------------------------------------
A---0-----0-----0-----0-----0-----0-----0-----0-------------------------
E-----------------------------------------------------------------------



e-------5-5-----3-2-------------3-3-----3---3---------------------------
B-------2-2-----2--2------------2-2-----2---2---------------------------
G-------------------2---------------------------------------------------
D-----------------------------------------------------------------------
A---0-----0-----0-----3---4-0-----0-----0-----0-------------------------
E-----------------------------------------------------------------------


e-----------------------------------------------------------------------
B---------1-----1-----------------0h1p0-0-------------------------------
G-------2-----2-----2-----------2-----------2---------------------------
D-----------------------------------------------------------------------
A-----------------------------------------------------------------------
E-0-2-----2-----2-----2---0-2-----2-----2-----2-------------------------

 etc ...