20150327

THE VIOLENTS ANACONDA GUITAR TAB (GUITAR INSTRUMENTAL)


The Violents - Anaconda vintage instrumental guitar song from 1961
Download the TAB under the video



THE VIOLENTS ANACONDA TAB


Part 1

                C                           Dm
e-------8-7-5-----------------------8-8-7-5----5------------------------
B---5-8-------8-5~--------------5-8---------6-----6---------------------
G-5---------------------------5----------------------7------------------
D-----------------------------------------------------------------------
A-----------------------------------------------------------------------
E-----------------------------------------------------------------------

               G7                                    C
e-----------------------7~----------7---7--8---7--5--3~-----------------
B---5-6--8--9--10-----8-8~----------8---8--10--8--6--5~-----------------
G-7---------------------------------------------------------------------
D-----------------------------------------------------------------------
A-----------------------------------------------------------------------
E-----------------------------------------------------------------------

                C                             F
e-------8-7-5-------------------------6-6-8-6-5-----8-5~----------------
B---5-8-------8-5~----------------5-8-----------------------------------
G-5-----------------------------5---------------------------------------
D-----------------------------------------------------------------------
A-----------------------------------------------------------------------
E-----------------------------------------------------------------------



          Fm          C                G7                  C
e-------8-12-10-8h10------------8-7-------------------------------------
B----10-------------9-8-------8-----10-8-----8/10-8---------------------
G-10------------------------9-----------------------10-9-7--------------
D----------------------------------------------------------10-----------
A-----------------------------------------------------------------------
E-----------------------------------------------------------------------



Part 2

                     G7
e-----------------------------------------------------------------------
B-----------------------------------------------------------------------
G-/5-5-5-5---5-4---2-----4-2--------------------------------------------
D--------------------5---------5-3--------------------------------------
A-----------------------------------------------------------------------
E-----------------------------------------------------------------------

                     C
e-----------------------------------------------------------------------
B-----------------------------------------------------------------------
G-/4-4-4-4---4-2-----2---5-2--------------------------------------------
D------------------5-----------5-2--------------------------------------
A-----------------------------------------------------------------------
E-----------------------------------------------------------------------

                    G7
e-----------------------------------------------------------------------
B-----------------------------------------------------------------------
G-5---5-5---5-4---2-----4-2---------------------------------------------
D-------------------5---------5-3---------------------------------------
A-----------------------------------------------------------------------
E-----------------------------------------------------------------------

                      C
e-----------------------------------------------------------------------
B-----------------------------------------------------------------------
G-----------------------------------------------------------------------
D-3/5---5-5---3-2-------------------------------------------------------
A-------------------5-3-------------------------------------------------
E-----------------------------------------------------------------------



Part 3

                C#                                D#m
e-------9-8-6-4-------4-------------------9-9-8-6------6----------------
B---6-9---------6-------6-------------6-9---------7-77---7--------------
G-6---------------------------------6----------------------8------------
D-----------------------------------------------------------------------
A-----------------------------------------------------------------------
E-----------------------------------------------------------------------
  x x x x x x x x     x x           x x x x x x x x xx x x x