20150418

SAY CHANCE GRAVITY TAB (JOHN MAYER ACOUSTIC)


John Mayer - Gravity acoustic cover played by Say Chance (Kelly, Maddie & Taylor)
Awesome guitar playing by Kelly Rosenthal (standard tuning & CAPO on 3rd)
Download the TAB under the video



SAY CHANCE GRAVITY TAB


Intro

e-----------------------------------------------------------------------
B---3-----------3---------3-----3---------3-----3-----------------------
G---4-----------2h4-------4h5---5p4-------2h4---4p2---------------------
D---5---------------------5-----5---------------------5-----------------
A-----------------------------------------------------------------------
E---3---------3---------3---------------3-------------------------------


e-----------------------------------------------------------------------
B-----------------------------------------------------------------------
G---5---5-------5---5---5---5---5-------5---5---------------------------
D---5---5-------5---5h7-5h7-5---5-------5h7-5---5.--0-------------------
A---5h7-------7-5h7---------5h7-------7-----7---5.----------------------
E-----------------------------------------------------------------------


e---------------5/7---3------------------------------------------------
B---3---------------------3---3---------------3-3-----3----------------
G---4-----------5/7---4---2h4-2h4-------4-----5-4p2---2----------------
D---5-----------------------------------------------5------------------
A----------------------------------------------------------------------
E---3---------3---------3-------------------3--------------------------



e-----------------------------------------------------------------------
B-----------------------------------------------------------------------
G---5---5-------5---5---5---5---5-------5---5---------------------------
D---5---5-------5---5h7-5h7-5---5-------5h7-5---5.--0-------------------
A---5h7-------7-5h7---------5h7-------7-----7---5.----------------------
E-----------------------------------------------------------------------



Verse 1

e-----------------------------------------------------------------------
B---3-----------3-------------------------------------------------------
G---4-----------4-------4h5-5p4-----------4h5-5p4-----------------------
D---5-----------5-------5---5-------------5---5-----5---0---------------
A-----------------------------------------------------------------------
E---3---------3-------3-----3-----------3-------------------------------


e-----------------------------------------------------------------------
B-----------------------------------------------------------------------
G---5---5-------5---5---5---5---5-------5---5---------------------------
D---5---5-------5---5h7-5h7-5---5-------5h7-5---5.--0-------------------
A---5h7-------7-5h7---------5h7-------7-----7---5.----------------------
E-----------------------------------------------------------------------


e-----------------------------------------------------------------------
B---3-----------3---3-----3---3---------------3-3-----3-----------------
G---4-----------2h4-4p2---2---2h4-------4-----5-4p2---2-----------------
D---5-------------------5---------------------------5---0---------------
A-----------------------------------------------------------------------
E---3---------3-------------3---------------3---------------------------


e-----------------------------------------------------------------------
B-----------------------------------------------------------------------
G---5---5-------5---5---5---5---5-------5---5---------------------------
D---5---5-------5---5h7-5h7-5---5-------5h7-5-----5---------------------
A---5h7-------7-5h7---------5h7-------7---------5---5-------------------
E-----------------------------------------------------------------------



Chorus 1

e---------------------5-----------------------------5-------------------
B---------------8---------8-----8-------------8---------8-----8---------
G---------5-----------------5-----------5---------5-------5-------------
D-------7-----------7-----------------7-----7---------------------------
A---0---------0-------------------0-------------------------------------
E-----------------------------------------------------------------------


e-----------------------------------------------------------------------
B---------------7--------------7-------------7---------------7----------
G---------5-----------5----5-----------5-----------5-----5--------------
D-------4----------------4-----------4-----------------4----------------
A--/5---------5------------------5---------5----------------------------
E-----------------------------------------------------------------------


e-----------------------------------------------------------------------
B---------------8-------------8-------------6---------------------------
G---------7---------7-----7------------5----7---7-----7---0-------------
D-------8---------------8------------5--------------5-------------------
A-------------------------------/6---------6----------------------------
E--/6---------6---------------------------------------------------------