20150422

ROHAN THEME FINGERSTYLE TAB


The Lord of the Rings - Rohan Theme fingerstyle classical guitar cover by Jonas Lefvert
It's arranged and played in standard tuning
Download the TAB under the video



ROHAN THEME FINGERSTYLE TAB

GP5 + GP6 + PDF >> 

Part 1

e---0-------3-----------5-----------------------------------------------
B---1-------1-------------8-7-------------------------------------------
G---0-------------------5---7-------7-----------------------------------
D---2-----------------------7-------------------------------------------
A---3-----------------------5-------------------------------------------
E-----------------------------------------------------------------------


e---0-------3-----------2-----------------------------------------------
B---1-------1-----------3-----------------------------------------------
G---0-------------------2-----------------------------------------------
D---2-------------------0-----------------------------------------------
A---3-------------------------------------------------------------------
E-----------------------------------------------------------------------


e---0-------3-----------5-----------------------------------------------
B---1-------1-------------8-7-------------------------------------------
G---0-------------------5---7-------7-----------------------------------
D---2-----------------------7-------------------------------------------
A---3-----------------------5-------------------------------------------
E-----------------------------------------------------------------------



e---0-------7~----------------------------------------------------------
B---0-------8~----------------------------------------------------------
G---0-------------------------------------------------------------------
D-----------------------------------------------------------------------
A-----------------------------------------------------------------------
E---0-------------------------------------------------------------------


e---0-------3-----------2-------------2---2---0-------------------------
B---1-------1-----------3---------------3---3-0-------------------------
G---0-------------------2---------------------0-------------------------
D---2-------------------0-----------------------------------------------
A---3-------------------------------------------------------------------
E---------------------------------------------0-------------------------


e---0-------3------------2-------5------3-5-7-----------12--------------
B---1-------1------------3-------3----------0---------------------------
G---0--------------------2------------------0-----------12--------------
D---2--------------------0------------------------------9---------------
A---3-------------------------------------------------------------------
E-------------------------------------------0---------------------------






DOWNLOAD THIS TAB IN GUITAR PRO



  • click 'Free Download'
  • add your e-mail address
  • you will get an e-mail with your download links (in a few seconds)
  • download the Guitar Pro 6 tab + GP5 + PDF for free
  • and that's all ...