20150526

HANK MARVIN APACHE TAB (LIVE, 2000)


Hank Marvin (the Shadows) performing Apache live (2000)
Classic guitar instrumental with the red Fender Stratocaster
Download the TAB under the video



HANK MARVIN AND THE SHADOWS APACHE TAB (LIVE)

GP5 + GP6 + PDF >>

Part 1

e-------------------------3/5-3-0-----------------------------3/5-3-0---
B-----1-3(4)(3)---------1-----------------1-3(4)(3)---------1-----------
G---2-----------------2-----------------2-----------------2-------------
D-----------------------------------------------------------------------
A-----------------------------------------------------------------------
E-----------------------------------------------------------------------



Part 2

e-----------------------------------------------------------------------
B-----------------------------------------------------------------------
G-----2-----------2-----------------------------------------------------
D---2---------2-------4-------2---0---2---------------------------------
A-----------------------------------------------------------------------
E-----------------------------------------------------------------------


e-----------------------------------------------------------------------
B-----------------------------------------------------------------------
G-------2-----------2---------------------------------------------------
D---2-----------2-------4-------2---0---2-------------------------------
A-----------------------------------------------------------------------
E-----------------------------------------------------------------------



e-----------------------------------------------------------------------
B-------3-----------3---------------------------------------------------
G---2-----------2-------4-------2---0---2-------------------------------
D-----------------------------------------------------------------------
A-----------------------------------------------------------------------
E-----------------------------------------------------------------------


e-----------------------------------------------------------------------
B-----------------------------------------------------------------------
G-------2-----------2---------------------------------------------------
D---2-----------2-------4-------2---0---2-------------------------------
A-----------------------------------------------------------------------
E-----------------------------------------------------------------------


e-----------------------------------------------------------------------
B-----------------------------------------------------------------------
G-----------------------------------------------------------------------
D------3-3-3--3-3----3-3-3--3-3----3-3-3--3-3----3-3-3--3--2------------
A---3-------------3-------------3-------------3--------------------0----
E-----------------------------------------------------------------------
    x  x x x  x x x  x x x  x x x  x x x  x x x  x x x  x  x       x

e-----------------------------------------------------------------------
B-----------------------------------------------------------------------
G-----------------------------------------------------------------------
D------3-3-3--3-3----3-3-3--3-3----3-3-3--3-3----3-3-3--3--2------------
A---3-------------3-------------3-------------3-------------------------
E-----------------------------------------------------------------------
    x  x x x  x x x  x x x  x x x  x x x  x x x  x x x  x  x



Part 3

e-------------------------------0---------------------------------------
B-----------1---0-------1---3------3--1---------------------------------
G-------2--------------------------------2------------------------------
D---3-------------------------------------------------------------------
A-----------------------------------------------------------------------
E-----------------------------------------------------------------------


e-------------------------------------------3-----------6---------------
B-----------1---0-------1---3-----------3/5---------5/8---8(7)(8)-------
G-------2-----------------------0---------------------------------------
D---3--------------------------------------------------- Tremolo Bar ---
A-----------------------------------------------------------------------
E-----------------------------------------------------------------------


e-----------------------------------------------------------------------
B-----------1---0-------1---3--/5--3--1---------------------------------
G-------2--------------------------------2------------------------------
D---3-------------------------------------------------------------------
A-----------------------------------------------------------------------
E-----------------------------------------------------------------------


e-----------------------------------------------------------------------
B-----------------------------------------------------------------------
G-----------------------------------------------------------------------
D------3-3-3--3-3----3-3-3--3-3----3-3-3--3-3----3-3-3--3--2------------
A---3-------------3-------------3-------------3--------------------0----
E-----------------------------------------------------------------------
    x  x x x  x x x  x x x  x x x  x x x  x x x  x x x  x  x       x

e-----------------------------------------------------------------------
B-----------------------------------------------------------------------
G-----------------------------------------------------------------------
D------3-3-3--3-3----3-3-3--3-3----3-3-3--3-3----3-3-3--3--2------------
A---3-------------3-------------3-------------3-------------------------
E-----------------------------------------------------------------------
    x  x x x  x x x  x x x  x x x  x x x  x x x  x x x  x  x






DOWNLOAD THE COMPLETE TAB HERE


  • click 'Free Download'
  • add your e-mail address
  • you will get an e-mail with your download links (in a few seconds)
  • download the Guitar Pro 6 tab + GP5 + PDF for free
  • and that's all ...


Guitar Pro: a complete workshop for guitarists at an affordable price